  0
SECTION
  2
HEADER
  9
$ACADVER
  1
AC1014
  9
$ACADMAINTVER
 70
     9
  9
$DWGCODEPAGE
  3
ANSI_932
  9
$INSBASE
 10
0.0
 20
0.0
 30
0.0
  9
$EXTMIN
 10
-1245.28797078052
 20
-875.523921464352
 30
0.0
  9
$EXTMAX
 10
705.5759415610389
 20
488.047842928704
 30
0.0
  9
$LIMMIN
 10
-74.25
 20
-52.5
  9
$LIMMAX
 10
74.25
 20
52.5
  9
$ORTHOMODE
 70
     0
  9
$REGENMODE
 70
     1
  9
$FILLMODE
 70
     1
  9
$QTEXTMODE
 70
     0
  9
$MIRRTEXT
 70
     1
  9
$DRAGMODE
 70
     2
  9
$LTSCALE
 40
0.5
  9
$OSMODE
 70
    37
  9
$ATTMODE
 70
     1
  9
$TEXTSIZE
 40
0.2
  9
$TRACEWID
 40
0.05
  9
$TEXTSTYLE
  7
STANDARD
  9
$CLAYER
  8
0
  9
$CELTYPE
  6
BYLAYER
  9
$CECOLOR
 62
   256
  9
$CELTSCALE
 40
1.0
  9
$DELOBJ
 70
     1
  9
$DISPSILH
 70
     0
  9
$DIMSCALE
 40
1.0
  9
$DIMASZ
 40
1.25
  9
$DIMEXO
 40
0.0625
  9
$DIMDLI
 40
0.38
  9
$DIMRND
 40
0.0
  9
$DIMDLE
 40
0.0
  9
$DIMEXE
 40
0.18
  9
$DIMTP
 40
0.0
  9
$DIMTM
 40
0.0
  9
$DIMTXT
 40
0.18
  9
$DIMCEN
 40
0.09
  9
$DIMTSZ
 40
0.0
  9
$DIMTOL
 70
     0
  9
$DIMLIM
 70
     0
  9
$DIMTIH
 70
     1
  9
$DIMTOH
 70
     1
  9
$DIMSE1
 70
     0
  9
$DIMSE2
 70
     0
  9
$DIMTAD
 70
     3
  9
$DIMZIN
 70
     0
  9
$DIMBLK
  1

  9
$DIMASO
 70
     1
  9
$DIMSHO
 70
     1
  9
$DIMPOST
  1

  9
$DIMAPOST
  1

  9
$DIMALT
 70
     0
  9
$DIMALTD
 70
     2
  9
$DIMALTF
 40
25.4
  9
$DIMLFAC
 40
1.0
  9
$DIMTOFL
 70
     0
  9
$DIMTVP
 40
0.0
  9
$DIMTIX
 70
     0
  9
$DIMSOXD
 70
     0
  9
$DIMSAH
 70
     0
  9
$DIMBLK1
  1

  9
$DIMBLK2
  1

  9
$DIMSTYLE
  2
STANDARD
  9
$DIMCLRD
 70
     0
  9
$DIMCLRE
 70
     0
  9
$DIMCLRT
 70
     0
  9
$DIMTFAC
 40
1.0
  9
$DIMGAP
 40
0.09
  9
$DIMJUST
 70
     0
  9
$DIMSD1
 70
     0
  9
$DIMSD2
 70
     0
  9
$DIMTOLJ
 70
     1
  9
$DIMTZIN
 70
     0
  9
$DIMALTZ
 70
     0
  9
$DIMALTTZ
 70
     0
  9
$DIMFIT
 70
     3
  9
$DIMUPT
 70
     0
  9
$DIMUNIT
 70
     2
  9
$DIMDEC
 70
     4
  9
$DIMTDEC
 70
     4
  9
$DIMALTU
 70
     2
  9
$DIMALTTD
 70
     2
  9
$DIMTXSTY
  7
STANDARD
  9
$DIMAUNIT
 70
     0
  9
$LUNITS
 70
     2
  9
$LUPREC
 70
     4
  9
$SKETCHINC
 40
0.1
  9
$FILLETRAD
 40
0.5
  9
$AUNITS
 70
     0
  9
$AUPREC
 70
     0
  9
$MENU
  1
.
  9
$ELEVATION
 40
0.0
  9
$PELEVATION
 40
0.0
  9
$THICKNESS
 40
0.0
  9
$LIMCHECK
 70
     0
  9
$CHAMFERA
 40
0.5
  9
$CHAMFERB
 40
0.5
  9
$CHAMFERC
 40
1.0
  9
$CHAMFERD
 40
0.0
  9
$SKPOLY
 70
     0
  9
$TDCREATE
 40
2456337.411624827
  9
$TDUPDATE
 40
2456337.411624838
  9
$TDINDWG
 40
0.0000000116
  9
$TDUSRTIMER
 40
0.0000000116
  9
$USRTIMER
 70
     1
  9
$ANGBASE
 50
0.0
  9
$ANGDIR
 70
     0
  9
$PDMODE
 70
     0
  9
$PDSIZE
 40
1.0
  9
$PLINEWID
 40
0.0
  9
$COORDS
 70
     1
  9
$SPLFRAME
 70
     0
  9
$SPLINETYPE
 70
     6
  9
$SPLINESEGS
 70
     8
  9
$ATTDIA
 70
     0
  9
$ATTREQ
 70
     1
  9
$HANDLING
 70
     1
  9
$HANDSEED
  5
16D
  9
$SURFTAB1
 70
     6
  9
$SURFTAB2
 70
     6
  9
$SURFTYPE
 70
     6
  9
$SURFU
 70
     6
  9
$SURFV
 70
     6
  9
$UCSNAME
  2

  9
$UCSORG
 10
0.0
 20
0.0
 30
0.0
  9
$UCSXDIR
 10
1.0
 20
0.0
 30
0.0
  9
$UCSYDIR
 10
0.0
 20
1.0
 30
0.0
  9
$PUCSNAME
  2

  9
$PUCSORG
 10
0.0
 20
0.0
 30
0.0
  9
$PUCSXDIR
 10
1.0
 20
0.0
 30
0.0
  9
$PUCSYDIR
 10
0.0
 20
1.0
 30
0.0
  9
$USERI1
 70
     0
  9
$USERI2
 70
     0
  9
$USERI3
 70
     0
  9
$USERI4
 70
     0
  9
$USERI5
 70
     0
  9
$USERR1
 40
0.0
  9
$USERR2
 40
0.0
  9
$USERR3
 40
0.0
  9
$USERR4
 40
0.0
  9
$USERR5
 40
0.0
  9
$WORLDVIEW
 70
     1
  9
$SHADEDGE
 70
     3
  9
$SHADEDIF
 70
    70
  9
$TILEMODE
 70
     1
  9
$MAXACTVP
 70
    64
  9
$PINSBASE
 10
0.0
 20
0.0
 30
0.0
  9
$PLIMCHECK
 70
     0
  9
$PEXTMIN
 10
1.000000000000000E+20
 20
1.000000000000000E+20
 30
1.000000000000000E+20
  9
$PEXTMAX
 10
-1.000000000000000E+20
 20
-1.000000000000000E+20
 30
-1.000000000000000E+20
  9
$PLIMMIN
 10
0.0
 20
0.0
  9
$PLIMMAX
 10
12.0
 20
9.0
  9
$UNITMODE
 70
     0
  9
$VISRETAIN
 70
     0
  9
$PLINEGEN
 70
     1
  9
$PSLTSCALE
 70
     0
  9
$TREEDEPTH
 70
  3020
  9
$PICKSTYLE
 70
     1
  9
$CMLSTYLE
  2
STANDARD
  9
$CMLJUST
 70
     0
  9
$CMLSCALE
 40
1.0
  9
$PROXYGRAPHICS
 70
     0
  9
$MEASUREMENT
 70
     1
  0
ENDSEC
  0
SECTION
  2
CLASSES
  0
CLASS
  1
ACDBDICTIONARYWDFLT
  2
AcDbDictionaryWithDefault
  3
ObjectDBX Classes
 90
        0
280
     0
281
     0
  0
CLASS
  1
XRECORD
  2
AcDbXrecord
  3
AutoCAD 2000
 90
        0
280
     0
281
     0
  0
CLASS
  1
LWPOLYLINE
  2
AcDbPolyline
  3
AutoCAD 2000
 90
        0
280
     0
281
     1
  0
CLASS
  1
HATCH
  2
AcDbHatch
  3
AutoCAD 2000
 90
        0
280
     0
281
     1
  0
CLASS
  1
ACDBPLACEHOLDER
  2
AcDbPlaceHolder
  3
ObjectDBX Classes
 90
        0
280
     0
281
     0
  0
CLASS
  1
LAYOUT
  2
AcDbLayout
  3
ObjectDBX Classes
 90
        0
280
     0
281
     0
  0
ENDSEC
  0
SECTION
  2
TABLES
  0
TABLE
  2
VPORT
  5
8
330
0
100
AcDbSymbolTable
 70
     1
  0
VPORT
  5
29
330
8
100
AcDbSymbolTableRecord
100
AcDbViewportTableRecord
  2
*ACTIVE
 70
     0
 10
0.0
 20
0.0
 11
1.0
 21
1.0
 12
0.0
 22
0.0
 13
0.0
 23
0.0
 14
0.5
 24
0.5
 15
0.5
 25
0.5
 16
0.0
 26
0.0
 36
1.0
 17
-271.320300324026
 27
-199.011960732176
 37
0.0
 40
451.835600106361
 41
1.459129354092047
 42
50.0
 43
0.0
 44
0.0
 50
0.0
 51
0.0
 71
     0
 72
  1000
 73
     1
 74
     1
 75
     0
 76
     0
 77
     0
 78
     0
  0
ENDTAB
  0
TABLE
  2
LTYPE
  5
5
330
0
100
AcDbSymbolTable
 70
    28
  0
LTYPE
  5
14
330
5
100
AcDbSymbolTableRecord
100
AcDbLinetypeTableRecord
  2
BYBLOCK
 70
     0
  3

 72
    65
 73
     0
 40
0.0
  0
LTYPE
  5
15
330
5
100
AcDbSymbolTableRecord
100
AcDbLinetypeTableRecord
  2
BYLAYER
 70
     0
  3

 72
    65
 73
     0
 40
0.0
  0
LTYPE
  5
16
330
5
100
AcDbSymbolTableRecord
100
AcDbLinetypeTableRecord
  2
CONTINUOUS
 70
     0
  3
Solid line
 72
    65
 73
     0
 40
0.0
  0
LTYPE
  5
2B
330
5
100
AcDbSymbolTableRecord
100
AcDbLinetypeTableRecord
  2
HIDDENX2
 70
     0
  3
CADPAC LINETYPE
 72
    65
 73
     2
 40
4.242424242424249
 49
3.181818181818187
 74
     0
 49
-1.060606060606062
 74
     0
  0
LTYPE
  5
2C
330
5
100
AcDbSymbolTableRecord
100
AcDbLinetypeTableRecord
  2
HIDDEN
 70
     0
  3
CADPAC LINETYPE
 72
    65
 73
     2
 40
3.181818181818187
 49
2.121212121212125
 74
     0
 49
-1.060606060606062
 74
     0
  0
LTYPE
  5
2D
330
5
100
AcDbSymbolTableRecord
100
AcDbLinetypeTableRecord
  2
HIDDEN2
 70
     0
  3
CADPAC LINETYPE
 72
    65
 73
     2
 40
2.651515151515156
 49
1.590909090909094
 74
     0
 49
-1.060606060606062
 74
     0
  0
LTYPE
  5
2E
330
5
100
AcDbSymbolTableRecord
100
AcDbLinetypeTableRecord
  2
DASHED
 70
     0
  3
CADPAC LINETYPE
 72
    65
 73
     2
 40
2.969696969696969
 49
2.121212121212125
 74
     0
 49
-0.8484848484848442
 74
     0
  0
LTYPE
  5
2F
330
5
100
AcDbSymbolTableRecord
100
AcDbLinetypeTableRecord
  2
DASHED2
 70
     0
  3
CADPAC LINETYPE
 72
    65
 73
     2
 40
1.909090909090907
 49
1.272727272727252
 74
     0
 49
-0.6363636363636545
 74
     0
  0
LTYPE
  5
30
330
5
100
AcDbSymbolTableRecord
100
AcDbLinetypeTableRecord
  2
DASHEDX2
 70
     0
  3
CADPAC LINETYPE
 72
    65
 73
     2
 40
5.090909090909065
 49
4.242424242424221
 74
     0
 49
-0.8484848484848442
 74
     0
  0
LTYPE
  5
31
330
5
100
AcDbSymbolTableRecord
100
AcDbLinetypeTableRecord
  2
DOTX2
 70
     0
  3
CADPAC LINETYPE
 72
    65
 73
     2
 40
1.856060606060623
 49
0.0
 74
     0
 49
-1.856060606060623
 74
     0
  0
LTYPE
  5
32
330
5
100
AcDbSymbolTableRecord
100
AcDbLinetypeTableRecord
  2
DOT
 70
     0
  3
CADPAC LINETYPE
 72
    65
 73
     2
 40
1.484848484848499
 49
0.0
 74
     0
 49
-1.484848484848499
 74
     0
  0
LTYPE
  5
33
330
5
100
AcDbSymbolTableRecord
100
AcDbLinetypeTableRecord
  2
DOT2
 70
     0
  3
CADPAC LINETYPE
 72
    65
 73
     2
 40
1.113636363636374
 49
0.0
 74
     0
 49
-1.113636363636374
 74
     0
  0
LTYPE
  5
34
330
5
100
AcDbSymbolTableRecord
100
AcDbLinetypeTableRecord
  2
CENTERX2
 70
     0
  3
CADPAC LINETYPE
 72
    65
 73
     4
 40
6.363636363636374
 49
2.651515151515156
 74
     0
 49
-1.325757575757578
 74
     0
 49
1.060606060606062
 74
     0
 49
-1.325757575757578
 74
     0
  0
LTYPE
  5
35
330
5
100
AcDbSymbolTableRecord
100
AcDbLinetypeTableRecord
  2
CENTER
 70
     0
  3
CADPAC LINETYPE
 72
    65
 73
     4
 40
4.878787878787887
 49
2.121212121212125
 74
     0
 49
-1.060606060606062
 74
     0
 49
0.6363636363636374
 74
     0
 49
-1.060606060606062
 74
     0
  0
LTYPE
  5
36
330
5
100
AcDbSymbolTableRecord
100
AcDbLinetypeTableRecord
  2
CENTER2
 70
     0
  3
CADPAC LINETYPE
 72
    65
 73
     4
 40
3.393939393939399
 49
1.590909090909094
 74
     0
 49
-0.7954545454545468
 74
     0
 49
0.2121212121212125
 74
     0
 49
-0.7954545454545468
 74
     0
  0
LTYPE
  5
37
330
5
100
AcDbSymbolTableRecord
100
AcDbLinetypeTableRecord
  2
DASHDOTX2
 70
     0
  3
CADPAC LINETYPE
 72
    65
 73
     4
 40
10.18181818181816
 49
5.090909090909094
 74
     0
 49
-1.696969696969688
 74
     0
 49
1.696969696969688
 74
     0
 49
-1.696969696969688
 74
     0
  0
LTYPE
  5
38
330
5
100
AcDbSymbolTableRecord
100
AcDbLinetypeTableRecord
  2
DASHDOT
 70
     0
  3
CADPAC LINETYPE
 72
    65
 73
     4
 40
5.090909090909065
 49
2.545454545454533
 74
     0
 49
-0.8484848484848442
 74
     0
 49
0.8484848484848442
 74
     0
 49
-0.8484848484848442
 74
     0
  0
LTYPE
  5
39
330
5
100
AcDbSymbolTableRecord
100
AcDbLinetypeTableRecord
  2
DASHDOT2
 70
     0
  3
CADPAC LINETYPE
 72
    65
 73
     4
 40
3.26666666666665
 49
1.909090909090899
 74
     0
 49
-0.6363636363636331
 74
     0
 49
0.0848484848484844
 74
     0
 49
-0.6363636363636331
 74
     0
  0
LTYPE
  5
3A
330
5
100
AcDbSymbolTableRecord
100
AcDbLinetypeTableRecord
  2
DIVIDEX2
 70
     0
  3
CADPAC LINETYPE
 72
    65
 73
     6
 40
13.57575757575754
 49
5.090909090909094
 74
     0
 49
-1.696969696969688
 74
     0
 49
1.696969696969688
 74
     0
 49
-1.696969696969688
 74
     0
 49
1.696969696969688
 74
     0
 49
-1.696969696969688
 74
     0
  0
LTYPE
  5
3B
330
5
100
AcDbSymbolTableRecord
100
AcDbLinetypeTableRecord
  2
DIVIDE
 70
     0
  3
CADPAC LINETYPE
 72
    65
 73
     6
 40
6.787878787878753
 49
2.545454545454533
 74
     0
 49
-0.8484848484848442
 74
     0
 49
0.8484848484848442
 74
     0
 49
-0.8484848484848442
 74
     0
 49
0.8484848484848442
 74
     0
 49
-0.8484848484848442
 74
     0
  0
LTYPE
  5
3C
330
5
100
AcDbSymbolTableRecord
100
AcDbLinetypeTableRecord
  2
DIVIDE2
 70
     0
  3
CADPAC LINETYPE
 72
    65
 73
     6
 40
5.090909090909065
 49
1.909090909090899
 74
     0
 49
-0.6363636363636331
 74
     0
 49
0.6363636363636331
 74
     0
 49
-0.6363636363636331
 74
     0
 49
0.6363636363636331
 74
     0
 49
-0.6363636363636331
 74
     0
  0
LTYPE
  5
3D
330
5
100
AcDbSymbolTableRecord
100
AcDbLinetypeTableRecord
  2
BORDERX2
 70
     0
  3
CADPAC LINETYPE
 72
    65
 73
     6
 40
9.280303030303045
 49
2.651515151515156
 74
     0
 49
-1.325757575757578
 74
     0
 49
2.651515151515156
 74
     0
 49
-1.325757575757578
 74
     0
 49
0.0
 74
     0
 49
-1.325757575757578
 74
     0
  0
LTYPE
  5
3E
330
5
100
AcDbSymbolTableRecord
100
AcDbLinetypeTableRecord
  2
BORDER
 70
     0
  3
CADPAC LINETYPE
 72
    65
 73
     6
 40
7.424242424242436
 49
2.121212121212125
 74
     0
 49
-1.060606060606062
 74
     0
 49
2.121212121212125
 74
     0
 49
-1.060606060606062
 74
     0
 49
0.0
 74
     0
 49
-1.060606060606062
 74
     0
  0
LTYPE
  5
3F
330
5
100
AcDbSymbolTableRecord
100
AcDbLinetypeTableRecord
  2
BORDER2
 70
     0
  3
CADPAC LINETYPE
 72
    65
 73
     6
 40
5.51515151515153
 49
1.696969696969688
 74
     0
 49
-1.060606060606062
 74
     0
 49
0.6363636363636545
 74
     0
 49
-1.060606060606062
 74
     0
 49
0.0
 74
     0
 49
-1.060606060606062
 74
     0
  0
LTYPE
  5
40
330
5
100
AcDbSymbolTableRecord
100
AcDbLinetypeTableRecord
  2
PHANTOMX2
 70
     0
  3
CADPAC LINETYPE
 72
    65
 73
     6
 40
7.954545454545468
 49
2.651515151515156
 74
     0
 49
-1.060606060606062
 74
     0
 49
1.060606060606062
 74
     0
 49
-1.060606060606062
 74
     0
 49
1.060606060606062
 74
     0
 49
-1.060606060606062
 74
     0
  0
LTYPE
  5
41
330
5
100
AcDbSymbolTableRecord
100
AcDbLinetypeTableRecord
  2
PHANTOM
 70
     0
  3
CADPAC LINETYPE
 72
    65
 73
     6
 40
6.575757575757587
 49
2.121212121212125
 74
     0
 49
-1.060606060606062
 74
     0
 49
0.6363636363636374
 74
     0
 49
-1.060606060606062
 74
     0
 49
0.6363636363636374
 74
     0
 49
-1.060606060606062
 74
     0
  0
LTYPE
  5
42
330
5
100
AcDbSymbolTableRecord
100
AcDbLinetypeTableRecord
  2
PHANTOM2
 70
     0
  3
CADPAC LINETYPE
 72
    65
 73
     6
 40
5.62121212121213
 49
1.590909090909094
 74
     0
 49
-1.060606060606062
 74
     0
 49
0.424242424242425
 74
     0
 49
-1.060606060606062
 74
     0
 49
0.424242424242425
 74
     0
 49
-1.060606060606062
 74
     0
  0
LTYPE
  5
43
330
5
100
AcDbSymbolTableRecord
100
AcDbLinetypeTableRecord
  2
ACAD_ISO06W100
 70
     0
  3
CADPAC LINETYPE
 72
    65
 73
     8
 40
11.24242424242431
 49
5.090909090909094
 74
     0
 49
-1.060606060606062
 74
     0
 49
0.6363636363636545
 74
     0
 49
-1.060606060606062
 74
     0
 49
0.6363636363636545
 74
     0
 49
-1.060606060606062
 74
     0
 49
0.6363636363636545
 74
     0
 49
-1.060606060606062
 74
     0
  0
LTYPE
  5
44
330
5
100
AcDbSymbolTableRecord
100
AcDbLinetypeTableRecord
  2
ACAD_ISO13W100
 70
     0
  3
CADPAC LINETYPE
 72
    65
 73
     8
 40
8.484848484848499
 49
2.121212121212125
 74
     0
 49
-1.060606060606062
 74
     0
 49
2.121212121212125
 74
     0
 49
-1.060606060606062
 74
     0
 49
0.0
 74
     0
 49
-1.060606060606062
 74
     0
 49
0.0
 74
     0
 49
-1.060606060606062
 74
     0
  0
LTYPE
  5
45
330
5
100
AcDbSymbolTableRecord
100
AcDbLinetypeTableRecord
  2
ACAD_ISO14W100
 70
     0
  3
CADPAC LINETYPE
 72
    65
 73
     8
 40
6.363636363636374
 49
2.121212121212125
 74
     0
 49
-1.060606060606062
 74
     0
 49
0.0
 74
     0
 49
-1.060606060606062
 74
     0
 49
0.0
 74
     0
 49
-1.060606060606062
 74
     0
 49
0.0
 74
     0
 49
-1.060606060606062
 74
     0
  0
ENDTAB
  0
TABLE
  2
LAYER
  5
2
330
0
100
AcDbSymbolTable
 70
     2
  0
LAYER
  5
10
330
2
100
AcDbSymbolTableRecord
100
AcDbLayerTableRecord
  2
0
 70
     0
 62
     7
  6
CONTINUOUS
  0
LAYER
  5
46
330
2
100
AcDbSymbolTableRecord
100
AcDbLayerTableRecord
  2
LAYER0001
 70
     0
 62
     7
  6
CONTINUOUS
  0
ENDTAB
  0
TABLE
  2
STYLE
  5
3
330
0
100
AcDbSymbolTable
 70
     2
  0
STYLE
  5
11
330
3
100
AcDbSymbolTableRecord
100
AcDbTextStyleTableRecord
  2
STANDARD
 70
     0
 40
0.0
 41
1.0
 50
0.0
 71
     0
 42
0.2
  3
txt
  4

  0
STYLE
  5
73
330
3
100
AcDbSymbolTableRecord
100
AcDbTextStyleTableRecord
  2
FDASTYLE0
 70
     0
 40
2.0
 41
0.7272727272727274
 50
0.0
 71
     0
 42
0.2
  3
txt.shx
  4
bigfont
  0
ENDTAB
  0
TABLE
  2
VIEW
  5
6
330
0
100
AcDbSymbolTable
 70
     0
  0
ENDTAB
  0
TABLE
  2
UCS
  5
7
330
0
100
AcDbSymbolTable
 70
     0
  0
ENDTAB
  0
TABLE
  2
APPID
  5
9
330
0
100
AcDbSymbolTable
 70
     2
  0
APPID
  5
12
330
9
100
AcDbSymbolTableRecord
100
AcDbRegAppTableRecord
  2
ACAD
 70
     0
  0
APPID
  5
2A
330
9
100
AcDbSymbolTableRecord
100
AcDbRegAppTableRecord
  2
DAFUSIONOUT
 70
     0
  0
ENDTAB
  0
TABLE
  2
DIMSTYLE
  5
A
330
0
100
AcDbSymbolTable
 70
     1
  0
DIMSTYLE
105
27
330
A
100
AcDbSymbolTableRecord
100
AcDbDimStyleTableRecord
  2
STANDARD
 70
     0
  3

  4

  5

  6

  7

 40
1.0
 41
0.18
 42
0.0625
 43
0.38
 44
0.18
 45
0.0
 46
0.0
 47
0.0
 48
0.0
140
0.18
141
0.09
142
0.0
143
25.4
144
1.0
145
0.0
146
1.0
147
0.09
 71
     0
 72
     0
 73
     1
 74
     1
 75
     0
 76
     0
 77
     0
 78
     0
170
     0
171
     2
172
     0
173
     0
174
     0
175
     0
176
     0
177
     0
178
     0
270
     2
271
     4
272
     4
273
     2
274
     2
340
11
275
     0
280
     0
281
     0
282
     0
283
     1
284
     0
285
     0
286
     0
287
     3
288
     0
  0
ENDTAB
  0
TABLE
  2
BLOCK_RECORD
  5
1
330
0
100
AcDbSymbolTable
 70
    12
  0
BLOCK_RECORD
  5
1F
330
1
100
AcDbSymbolTableRecord
100
AcDbBlockTableRecord
  2
*MODEL_SPACE
  0
BLOCK_RECORD
  5
1B
330
1
100
AcDbSymbolTableRecord
100
AcDbBlockTableRecord
  2
*PAPER_SPACE
  0
BLOCK_RECORD
  5
48
330
1
100
AcDbSymbolTableRecord
100
AcDbBlockTableRecord
  2
DA_IMAGEDIMGROUP_1
  0
BLOCK_RECORD
  5
4B
330
1
100
AcDbSymbolTableRecord
100
AcDbBlockTableRecord
  2
DA_IMAGEDIMGROUP_2
  0
BLOCK_RECORD
  5
4E
330
1
100
AcDbSymbolTableRecord
100
AcDbBlockTableRecord
  2
DA_IMAGEDIMGROUP_3
  0
BLOCK_RECORD
  5
51
330
1
100
AcDbSymbolTableRecord
100
AcDbBlockTableRecord
  2
DA_IMAGEDIMGROUP_4
  0
BLOCK_RECORD
  5
54
330
1
100
AcDbSymbolTableRecord
100
AcDbBlockTableRecord
  2
DA_IMAGEDIMGROUP_5
  0
BLOCK_RECORD
  5
57
330
1
100
AcDbSymbolTableRecord
100
AcDbBlockTableRecord
  2
DA_IMAGEDIMGROUP_6
  0
BLOCK_RECORD
  5
5A
330
1
100
AcDbSymbolTableRecord
100
AcDbBlockTableRecord
  2
DA_IMAGEDIMGROUP_7
  0
BLOCK_RECORD
  5
5D
330
1
100
AcDbSymbolTableRecord
100
AcDbBlockTableRecord
  2
DA_IMAGEDIMGROUP_8
  0
BLOCK_RECORD
  5
60
330
1
100
AcDbSymbolTableRecord
100
AcDbBlockTableRecord
  2
DA_IMAGEDIMGROUP_9
  0
BLOCK_RECORD
  5
63
330
1
100
AcDbSymbolTableRecord
100
AcDbBlockTableRecord
  2
DA_IMAGEDIMGROUP_10
  0
BLOCK_RECORD
  5
6A
330
1
100
AcDbSymbolTableRecord
100
AcDbBlockTableRecord
  2
_OPEN30
  0
ENDTAB
  0
ENDSEC
  0
SECTION
  2
BLOCKS
  0
BLOCK
  5
20
330
1F
100
AcDbEntity
  8
0
100
AcDbBlockBegin
  2
*MODEL_SPACE
 70
     0
 71
     0
 10
0.0
 20
0.0
 30
0.0
  3
*MODEL_SPACE
  1

  0
ENDBLK
  5
21
330
1F
100
AcDbEntity
  8
0
100
AcDbBlockEnd
  0
BLOCK
  5
1C
330
1B
100
AcDbEntity
 67
     1
  8
0
100
AcDbBlockBegin
  2
*PAPER_SPACE
 70
     0
 71
     0
 10
0.0
 20
0.0
 30
0.0
  3
*PAPER_SPACE
  1

  0
ENDBLK
  5
1D
330
1B
100
AcDbEntity
 67
     1
  8
0
100
AcDbBlockEnd
  0
BLOCK
  5
49
330
48
100
AcDbEntity
  8
0
100
AcDbBlockBegin
  2
DA_IMAGEDIMGROUP_1
 70
     0
 71
     0
 10
0.0
 20
0.0
 30
0.0
  3
DA_IMAGEDIMGROUP_1
  1

  0
LINE
  5
66
330
48
100
AcDbEntity
  8
0
  6
CONTINUOUS
 62
     9
100
AcDbLine
 10
30.6724141138528
 20
-13.523921464352
 30
0.0
 11
30.6724141138528
 21
-33.523921464352
 31
0.0
  0
LINE
  5
67
330
48
100
AcDbEntity
  8
0
  6
CONTINUOUS
 62
     9
100
AcDbLine
 10
28.5724141138528
 20
2.236078535648002
 30
0.0
 11
28.5724141138528
 21
-18.59646050330022
 31
0.0
  0
LINE
  5
68
330
48
100
AcDbEntity
  8
0
  6
CONTINUOUS
 62
     9
100
AcDbLine
 10
28.5724141138528
 20
-18.023921464352
 30
0.0
 11
30.6724141138528
 21
-18.023921464352
 31
0.0
  0
LINE
  5
69
330
48
100
AcDbEntity
  8
0
  6
CONTINUOUS
 62
     9
100
AcDbLine
 10
48.42130411385281
 20
-18.023921464352
 30
0.0
 11
30.6724141138528
 21
-18.023921464352
 31
0.0
  0
INSERT
  5
70
330
48
100
AcDbEntity
  8
0
 62
     9
100
AcDbBlockReference
  2
_OPEN30
 10
30.6724141138528
 20
-18.023921464352
 30
0.0
 41
1.500001393912182
 42
1.499994636989232
 50
180.0
  0
LINE
  5
71
330
48
100
AcDbEntity
  8
0
  6
CONTINUOUS
 62
     9
100
AcDbLine
 10
26.0724141138528
 20
-18.023921464352
 30
0.0
 11
28.5724141138528
 21
-18.023921464352
 31
0.0
  0
INSERT
  5
72
330
48
100
AcDbEntity
  8
0
 62
     9
100
AcDbBlockReference
  2
_OPEN30
 10
28.5724141138528
 20
-18.023921464352
 30
0.0
 41
1.500001393912182
 42
1.499994636989232
 50
360.0
  0
TEXT
  5
74
330
48
100
AcDbEntity
  8
0
 62
     7
100
AcDbText
 10
32.6213041138528
 20
-17.523921464352
 30
0.0
 40
2.0
  1
※３－2.1
 41
0.7272727272727274
  7
FDASTYLE0
 72
     5
 11
42.2213041138528
 21
-17.523921464352
 31
0.0
100
AcDbText
  0
TEXT
  5
75
330
48
100
AcDbEntity
  8
0
 62
     7
100
AcDbText
 10
42.7213041138528
 20
-16.223921464352
 30
0.0
 40
1.3
  1
±0.05
 41
0.7692307692307697
  7
FDASTYLE0
 72
     5
 11
47.92130411385281
 21
-16.223921464352
 31
0.0
100
AcDbText
  0
ENDBLK
  5
4A
330
48
100
AcDbEntity
  8
0
100
AcDbBlockEnd
  0
BLOCK
  5
4C
330
4B
100
AcDbEntity
  8
0
100
AcDbBlockBegin
  2
DA_IMAGEDIMGROUP_2
 70
     0
 71
     0
 10
0.0
 20
0.0
 30
0.0
  3
DA_IMAGEDIMGROUP_2
  1

  0
LINE
  5
76
330
4B
100
AcDbEntity
  8
0
  6
CONTINUOUS
 62
     9
100
AcDbLine
 10
26.8724141138528
 20
-13.523921464352
 30
0.0
 11
26.8724141138528
 21
-22.523921464352
 31
0.0
  0
LINE
  5
77
330
4B
100
AcDbEntity
  8
0
  6
CONTINUOUS
 62
     9
100
AcDbLine
 10
26.8724141138528
 20
-22.023921464352
 30
0.0
 11
30.6724141138528
 21
-22.023921464352
 31
0.0
  0
LINE
  5
78
330
4B
100
AcDbEntity
  8
0
  6
CONTINUOUS
 62
     9
100
AcDbLine
 10
39.5213041138528
 20
-22.023921464352
 30
0.0
 11
30.6724141138528
 21
-22.023921464352
 31
0.0
  0
INSERT
  5
79
330
4B
100
AcDbEntity
  8
0
 62
     9
100
AcDbBlockReference
  2
_OPEN30
 10
30.6724141138528
 20
-22.023921464352
 30
0.0
 41
1.500001393912182
 42
1.499994636989232
 50
180.0
  0
LINE
  5
7A
330
4B
100
AcDbEntity
  8
0
  6
CONTINUOUS
 62
     9
100
AcDbLine
 10
24.3724141138528
 20
-22.023921464352
 30
0.0
 11
26.8724141138528
 21
-22.023921464352
 31
0.0
  0
INSERT
  5
7B
330
4B
100
AcDbEntity
  8
0
 62
     9
100
AcDbBlockReference
  2
_OPEN30
 10
26.8724141138528
 20
-22.023921464352
 30
0.0
 41
1.500001393912182
 42
1.499994636989232
 50
360.0
  0
TEXT
  5
7C
330
4B
100
AcDbEntity
  8
0
 62
     7
100
AcDbText
 10
32.6213041138528
 20
-21.523921464352
 30
0.0
 40
2.0
  1
※3.8
 41
0.7619047619047618
  7
FDASTYLE0
 72
     5
 11
39.0213041138528
 21
-21.523921464352
 31
0.0
100
AcDbText
  0
ENDBLK
  5
4D
330
4B
100
AcDbEntity
  8
0
100
AcDbBlockEnd
  0
BLOCK
  5
4F
330
4E
100
AcDbEntity
  8
0
100
AcDbBlockBegin
  2
DA_IMAGEDIMGROUP_3
 70
     0
 71
     0
 10
0.0
 20
0.0
 30
0.0
  3
DA_IMAGEDIMGROUP_3
  1

  0
LINE
  5
7D
330
4E
100
AcDbEntity
  8
0
  6
CONTINUOUS
 62
     9
100
AcDbLine
 10
23.27241411385278
 20
-6.443921464351984
 30
0.0
 11
23.27241411385278
 21
-26.523921464352
 31
0.0
  0
LINE
  5
7E
330
4E
100
AcDbEntity
  8
0
  6
CONTINUOUS
 62
     9
100
AcDbLine
 10
23.27241411385278
 20
-26.023921464352
 30
0.0
 11
30.6724141138528
 21
-26.023921464352
 31
0.0
  0
LINE
  5
7F
330
4E
100
AcDbEntity
  8
0
  6
CONTINUOUS
 62
     9
100
AcDbLine
 10
44.1813041138528
 20
-26.023921464352
 30
0.0
 11
30.6724141138528
 21
-26.023921464352
 31
0.0
  0
INSERT
  5
80
330
4E
100
AcDbEntity
  8
0
 62
     9
100
AcDbBlockReference
  2
_OPEN30
 10
30.6724141138528
 20
-26.023921464352
 30
0.0
 41
1.500001393912182
 42
1.499994636989232
 50
180.0
  0
LINE
  5
81
330
4E
100
AcDbEntity
  8
0
  6
CONTINUOUS
 62
     9
100
AcDbLine
 10
20.77241411385278
 20
-26.023921464352
 30
0.0
 11
23.27241411385278
 21
-26.023921464352
 31
0.0
  0
INSERT
  5
82
330
4E
100
AcDbEntity
  8
0
 62
     9
100
AcDbBlockReference
  2
_OPEN30
 10
23.27241411385278
 20
-26.023921464352
 30
0.0
 41
1.500001393912182
 42
1.499994636989232
 50
360.0
  0
TEXT
  5
83
330
4E
100
AcDbEntity
  8
0
 62
     7
100
AcDbText
 10
32.6213041138528
 20
-25.523921464352
 30
0.0
 40
2.0
  1
※7.4
 41
0.7619047619047618
  7
FDASTYLE0
 72
     5
 11
39.0213041138528
 21
-25.523921464352
 31
0.0
100
AcDbText
  0
TEXT
  5
84
330
4E
100
AcDbEntity
  8
0
 62
     7
100
AcDbText
 10
39.5213041138528
 20
-24.223921464352
 30
0.0
 40
1.3
  1
±0.1
 41
0.7619047619047624
  7
FDASTYLE0
 72
     5
 11
43.6813041138528
 21
-24.223921464352
 31
0.0
100
AcDbText
  0
ENDBLK
  5
50
330
4E
100
AcDbEntity
  8
0
100
AcDbBlockEnd
  0
BLOCK
  5
52
330
51
100
AcDbEntity
  8
0
100
AcDbBlockBegin
  2
DA_IMAGEDIMGROUP_4
 70
     0
 71
     0
 10
0.0
 20
0.0
 30
0.0
  3
DA_IMAGEDIMGROUP_4
  1

  0
LINE
  5
85
330
51
100
AcDbEntity
  8
0
  6
CONTINUOUS
 62
     9
100
AcDbLine
 10
7.572414113852798
 20
-14.32392146435199
 30
0.0
 11
7.572414113852798
 21
-33.523921464352
 31
0.0
  0
LINE
  5
86
330
51
100
AcDbEntity
  8
0
  6
CONTINUOUS
 62
     9
100
AcDbLine
 10
7.572414113852798
 20
-33.023921464352
 30
0.0
 11
30.6724141138528
 21
-33.023921464352
 31
0.0
  0
INSERT
  5
87
330
51
100
AcDbEntity
  8
0
 62
     9
100
AcDbBlockReference
  2
_OPEN30
 10
7.572414113852798
 20
-33.023921464352
 30
0.0
 41
1.500001393912182
 42
1.499994636989232
 50
180.0
  0
INSERT
  5
88
330
51
100
AcDbEntity
  8
0
 62
     9
100
AcDbBlockReference
  2
_OPEN30
 10
30.6724141138528
 20
-33.023921464352
 30
0.0
 41
1.500001393912182
 42
1.499994636989232
 50
360.0
  0
TEXT
  5
89
330
51
100
AcDbEntity
  8
0
 62
     7
100
AcDbText
 10
11.9224141138528
 20
-32.523921464352
 30
0.0
 40
2.0
  1
※22.9＋0.2
 41
0.7659574468085105
  7
FDASTYLE0
 72
     5
 11
26.3224141138528
 21
-32.523921464352
 31
0.0
100
AcDbText
  0
ENDBLK
  5
53
330
51
100
AcDbEntity
  8
0
100
AcDbBlockEnd
  0
BLOCK
  5
55
330
54
100
AcDbEntity
  8
0
100
AcDbBlockBegin
  2
DA_IMAGEDIMGROUP_5
 70
     0
 71
     0
 10
0.0
 20
0.0
 30
0.0
  3
DA_IMAGEDIMGROUP_5
  1

  0
LINE
  5
8A
330
54
100
AcDbEntity
  8
0
  6
CONTINUOUS
 62
     9
100
AcDbLine
 10
-6.427585886147202
 20
-6.123921464351991
 30
0.0
 11
-6.427585886147202
 21
-18.523921464352
 31
0.0
  0
LINE
  5
8B
330
54
100
AcDbEntity
  8
0
  6
CONTINUOUS
 62
     9
100
AcDbLine
 10
1.572414113852799
 20
-1.523921464352004
 30
0.0
 11
1.572414113852799
 21
-18.523921464352
 31
0.0
  0
LINE
  5
8C
330
54
100
AcDbEntity
  8
0
  6
CONTINUOUS
 62
     9
100
AcDbLine
 10
-6.427585886147202
 20
-18.023921464352
 30
0.0
 11
1.572414113852799
 21
-18.023921464352
 31
0.0
  0
INSERT
  5
8D
330
54
100
AcDbEntity
  8
0
 62
     9
100
AcDbBlockReference
  2
_OPEN30
 10
-6.427585886147202
 20
-18.023921464352
 30
0.0
 41
1.500001393912182
 42
1.499994636989232
 50
180.0
  0
INSERT
  5
8E
330
54
100
AcDbEntity
  8
0
 62
     9
100
AcDbBlockReference
  2
_OPEN30
 10
1.572414113852799
 20
-18.023921464352
 30
0.0
 41
1.500001393912182
 42
1.499994636989232
 50
360.0
  0
TEXT
  5
8F
330
54
100
AcDbEntity
  8
0
 62
     7
100
AcDbText
 10
-3.227585886147201
 20
-17.523921464352
 30
0.0
 40
2.0
  1
8
 41
0.7999999999999999
  7
FDASTYLE0
 72
     5
 11
-1.627585886147202
 21
-17.523921464352
 31
0.0
100
AcDbText
  0
ENDBLK
  5
56
330
54
100
AcDbEntity
  8
0
100
AcDbBlockEnd
  0
BLOCK
  5
58
330
57
100
AcDbEntity
  8
0
100
AcDbBlockBegin
  2
DA_IMAGEDIMGROUP_6
 70
     0
 71
     0
 10
0.0
 20
0.0
 30
0.0
  3
DA_IMAGEDIMGROUP_6
  1

  0
LINE
  5
90
330
57
100
AcDbEntity
  8
0
  6
CONTINUOUS
 62
     9
100
AcDbLine
 10
5.072414113852798
 20
2.876078535648002
 30
0.0
 11
5.072414113852798
 21
12.476078535648
 31
0.0
  0
LINE
  5
91
330
57
100
AcDbEntity
  8
0
  6
CONTINUOUS
 62
     9
100
AcDbLine
 10
7.572414113852798
 20
8.276078535648008
 30
0.0
 11
7.572414113852798
 21
12.476078535648
 31
0.0
  0
LINE
  5
92
330
57
100
AcDbEntity
  8
0
  6
CONTINUOUS
 62
     9
100
AcDbLine
 10
5.072414113852798
 20
11.976078535648
 30
0.0
 11
7.572414113852798
 21
11.976078535648
 31
0.0
  0
LINE
  5
93
330
57
100
AcDbEntity
  8
0
  6
CONTINUOUS
 62
     9
100
AcDbLine
 10
-2.176475886147203
 20
11.976078535648
 30
0.0
 11
5.072414113852798
 21
11.976078535648
 31
0.0
  0
INSERT
  5
94
330
57
100
AcDbEntity
  8
0
 62
     9
100
AcDbBlockReference
  2
_OPEN30
 10
5.072414113852798
 20
11.976078535648
 30
0.0
 41
1.500001393912182
 42
1.499994636989232
 50
360.0
  0
LINE
  5
95
330
57
100
AcDbEntity
  8
0
  6
CONTINUOUS
 62
     9
100
AcDbLine
 10
10.0724141138528
 20
11.976078535648
 30
0.0
 11
7.572414113852798
 21
11.976078535648
 31
0.0
  0
INSERT
  5
96
330
57
100
AcDbEntity
  8
0
 62
     9
100
AcDbBlockReference
  2
_OPEN30
 10
7.572414113852798
 20
11.976078535648
 30
0.0
 41
1.500001393912182
 42
1.499994636989232
 50
180.0
  0
TEXT
  5
97
330
57
100
AcDbEntity
  8
0
 62
     7
100
AcDbText
 10
-1.676475886147203
 20
12.476078535648
 30
0.0
 40
2.0
  1
2.5
 41
0.8000000000000002
  7
FDASTYLE0
 72
     5
 11
3.123524113852798
 21
12.476078535648
 31
0.0
100
AcDbText
  0
ENDBLK
  5
59
330
57
100
AcDbEntity
  8
0
100
AcDbBlockEnd
  0
BLOCK
  5
5B
330
5A
100
AcDbEntity
  8
0
100
AcDbBlockBegin
  2
DA_IMAGEDIMGROUP_7
 70
     0
 71
     0
 10
0.0
 20
0.0
 30
0.0
  3
DA_IMAGEDIMGROUP_7
  1

  0
LINE
  5
98
330
5A
100
AcDbEntity
  8
0
  6
CONTINUOUS
 62
     9
100
AcDbLine
 10
4.472414113852797
 20
2.976078535647996
 30
0.0
 11
4.472414113852797
 21
16.48098256735341
 31
0.0
  0
LINE
  5
99
330
5A
100
AcDbEntity
  8
0
  6
CONTINUOUS
 62
     9
100
AcDbLine
 10
7.572414113852798
 20
8.276078535648008
 30
0.0
 11
7.572414113852798
 21
16.48098256735341
 31
0.0
  0
LINE
  5
9A
330
5A
100
AcDbEntity
  8
0
  6
CONTINUOUS
 62
     9
100
AcDbLine
 10
4.472414113852797
 20
15.98098256735341
 30
0.0
 11
7.572414113852798
 21
15.98098256735341
 31
0.0
  0
LINE
  5
9B
330
5A
100
AcDbEntity
  8
0
  6
CONTINUOUS
 62
     9
100
AcDbLine
 10
-2.776475886147205
 20
15.98098256735341
 30
0.0
 11
4.472414113852796
 21
15.98098256735341
 31
0.0
  0
INSERT
  5
9C
330
5A
100
AcDbEntity
  8
0
 62
     9
100
AcDbBlockReference
  2
_OPEN30
 10
4.472414113852796
 20
15.98098256735341
 30
0.0
 41
1.500001393912182
 42
1.499994636989232
 50
360.0
  0
LINE
  5
9D
330
5A
100
AcDbEntity
  8
0
  6
CONTINUOUS
 62
     9
100
AcDbLine
 10
10.0724141138528
 20
15.98098256735341
 30
0.0
 11
7.572414113852798
 21
15.98098256735341
 31
0.0
  0
INSERT
  5
9E
330
5A
100
AcDbEntity
  8
0
 62
     9
100
AcDbBlockReference
  2
_OPEN30
 10
7.572414113852798
 20
15.98098256735341
 30
0.0
 41
1.500001393912182
 42
1.499994636989232
 50
180.0
  0
TEXT
  5
9F
330
5A
100
AcDbEntity
  8
0
 62
     7
100
AcDbText
 10
-2.276475886147205
 20
16.48098256735341
 30
0.0
 40
2.0
  1
3.1
 41
0.8000000000000002
  7
FDASTYLE0
 72
     5
 11
2.523524113852796
 21
16.48098256735341
 31
0.0
100
AcDbText
  0
ENDBLK
  5
5C
330
5A
100
AcDbEntity
  8
0
100
AcDbBlockEnd
  0
BLOCK
  5
5E
330
5D
100
AcDbEntity
  8
0
100
AcDbBlockBegin
  2
DA_IMAGEDIMGROUP_8
 70
     0
 71
     0
 10
0.0
 20
0.0
 30
0.0
  3
DA_IMAGEDIMGROUP_8
  1

  0
LINE
  5
A0
330
5D
100
AcDbEntity
  8
0
  6
CONTINUOUS
 62
     9
100
AcDbLine
 10
-44.21640267556303
 20
-8.931007555300814
 30
0.0
 11
-30.63607367894162
 21
2.883164626596808
 31
0.0
  0
LINE
  5
A1
330
5D
100
AcDbEntity
  8
0
  6
CONTINUOUS
 62
     9
100
AcDbLine
 10
-21.3928928702456
 20
10.92424592952503
 30
0.0
 11
-30.63607367894162
 21
2.883164626596808
 31
0.0
  0
INSERT
  5
A2
330
5D
100
AcDbEntity
  8
0
 62
     9
100
AcDbBlockReference
  2
_OPEN30
 10
-30.63607367894162
 20
2.883164626596808
 30
0.0
 41
1.500001393912182
 42
1.499994636989232
 50
221.0215542690947
  0
LINE
  5
A3
330
5D
100
AcDbEntity
  8
0
  6
CONTINUOUS
 62
     9
100
AcDbLine
 10
-46.10255948064934
 20
-10.5718648027866
 30
0.0
 11
-44.21640267556303
 21
-8.931007555300814
 31
0.0
  0
INSERT
  5
A4
330
5D
100
AcDbEntity
  8
0
 62
     9
100
AcDbBlockReference
  2
_OPEN30
 10
-44.21640267556303
 20
-8.931007555300814
 30
0.0
 41
1.500001393912182
 42
1.499994636989232
 50
41.02155426909472
  0
TEXT
  5
A5
330
5D
100
AcDbEntity
  8
0
 62
     7
100
AcDbText
 10
-29.23551303120661
 20
4.764302016558938
 30
0.0
 40
2.0
  1
φ18
 50
41.02155426909473
 41
0.7499999999999998
  7
FDASTYLE0
 72
     5
 11
-25.6140919654409
 21
7.914747931731637
 31
0.0
100
AcDbText
  0
TEXT
  5
A6
330
5D
100
AcDbEntity
  8
0
 62
     7
100
AcDbText
 10
-26.09010637311624
 20
9.223720919873673
 30
0.0
 40
1.3
  1
±0.2
 50
41.02155426909473
 41
0.7619047619047619
  7
FDASTYLE0
 72
     5
 11
-22.95154144945263
 21
11.95410737969001
 31
0.0
100
AcDbText
  0
ENDBLK
  5
5F
330
5D
100
AcDbEntity
  8
0
100
AcDbBlockEnd
  0
BLOCK
  5
61
330
60
100
AcDbEntity
  8
0
100
AcDbBlockBegin
  2
DA_IMAGEDIMGROUP_9
 70
     0
 71
     0
 10
0.0
 20
0.0
 30
0.0
  3
DA_IMAGEDIMGROUP_9
  1

  0
LINE
  5
A7
330
60
100
AcDbEntity
  8
0
  6
CONTINUOUS
 62
     9
100
AcDbLine
 10
-6.527585886147203
 20
-6.023921464351997
 30
0.0
 11
-14.9275858861472
 21
-6.023921464351997
 31
0.0
  0
LINE
  5
A8
330
60
100
AcDbEntity
  8
0
  6
CONTINUOUS
 62
     9
100
AcDbLine
 10
1.072414113852799
 20
-0.0239214643520036
 30
0.0
 11
-14.9275858861472
 21
-0.0239214643520036
 31
0.0
  0
LINE
  5
A9
330
60
100
AcDbEntity
  8
0
  6
CONTINUOUS
 62
     9
100
AcDbLine
 10
-14.4275858861472
 20
-6.023921464351997
 30
0.0
 11
-14.4275858861472
 21
-0.0239214643520036
 31
0.0
  0
LINE
  5
AA
330
60
100
AcDbEntity
  8
0
  6
CONTINUOUS
 62
     9
100
AcDbLine
 10
-14.4275858861472
 20
2.476078535647996
 30
0.0
 11
-14.4275858861472
 21
-0.0239214643520036
 31
0.0
  0
INSERT
  5
AB
330
60
100
AcDbEntity
  8
0
 62
     9
100
AcDbBlockReference
  2
_OPEN30
 10
-14.4275858861472
 20
-0.0239214643520036
 30
0.0
 41
1.500001393912182
 42
1.499994636989232
 50
270.0
  0
LINE
  5
AC
330
60
100
AcDbEntity
  8
0
  6
CONTINUOUS
 62
     9
100
AcDbLine
 10
-14.4275858861472
 20
-8.523921464351997
 30
0.0
 11
-14.4275858861472
 21
-6.023921464351997
 31
0.0
  0
INSERT
  5
AD
330
60
100
AcDbEntity
  8
0
 62
     9
100
AcDbBlockReference
  2
_OPEN30
 10
-14.4275858861472
 20
-6.023921464351997
 30
0.0
 41
1.500001393912182
 42
1.499994636989232
 50
90.0
  0
TEXT
  5
AE
330
60
100
AcDbEntity
  8
0
 62
     7
100
AcDbText
 10
-14.9275858861472
 20
-7.993921464352002
 30
0.0
 40
2.0
  1
φ6
 50
90.0
 41
0.7272727272727274
  7
FDASTYLE0
 72
     5
 11
-14.9275858861472
 21
-4.793921464352001
 31
0.0
100
AcDbText
  0
TEXT
  5
AF
330
60
100
AcDbEntity
  8
0
 62
     7
100
AcDbText
 10
-16.2275858861472
 20
-4.293921464352001
 30
0.0
 40
1.3
  1
+0.005
 50
90.0
 41
0.7999999999999999
  7
FDASTYLE0
 72
     5
 11
-16.2275858861472
 21
1.946078535648
 31
0.0
100
AcDbText
  0
TEXT
  5
B0
330
60
100
AcDbEntity
  8
0
 62
     7
100
AcDbText
 10
-14.8275858861472
 20
-4.293921464352001
 30
0.0
 40
1.3
  1
-0.015
 50
90.0
 41
0.7999999999999999
  7
FDASTYLE0
 72
     5
 11
-14.8275858861472
 21
1.946078535648
 31
0.0
100
AcDbText
  0
ENDBLK
  5
62
330
60
100
AcDbEntity
  8
0
100
AcDbBlockEnd
  0
BLOCK
  5
64
330
63
100
AcDbEntity
  8
0
100
AcDbBlockBegin
  2
DA_IMAGEDIMGROUP_10
 70
     0
 71
     0
 10
0.0
 20
0.0
 30
0.0
  3
DA_IMAGEDIMGROUP_10
  1

  0
LINE
  5
B1
330
63
100
AcDbEntity
  8
0
  6
CONTINUOUS
 62
     9
100
AcDbLine
 10
-37.42623817725232
 20
12.476078535648
 30
0.0
 11
-37.42623817725232
 21
9.476078535647996
 31
0.0
  0
LINE
  5
B2
330
63
100
AcDbEntity
  8
0
  6
CONTINUOUS
 62
     9
100
AcDbLine
 10
-52.92623817725232
 20
-3.023921464352002
 30
0.0
 11
-49.92623817725232
 21
-3.023921464352004
 31
0.0
  0
ARC
  5
B3
330
63
100
AcDbEntity
  8
0
  6
CONTINUOUS
 62
     9
100
AcDbCircle
 10
-37.42623817725232
 20
-3.023921464352004
 30
0.0
 40
15.0
100
AcDbArc
 50
90.0
 51
180.0
  0
INSERT
  5
B4
330
63
100
AcDbEntity
  8
0
 62
     9
100
AcDbBlockReference
  2
_OPEN30
 10
-37.42623817725232
 20
11.976078535648
 30
0.0
 41
1.500001393912182
 42
1.499994636989232
 50
2.864790773376297
  0
INSERT
  5
B5
330
63
100
AcDbEntity
  8
0
 62
     9
100
AcDbBlockReference
  2
_OPEN30
 10
-52.42623817725232
 20
-3.023921464352002
 30
0.0
 41
1.500001393912182
 42
1.499994636989232
 50
267.1352092266239
  0
TEXT
  5
B6
330
63
100
AcDbEntity
  8
0
 62
     7
100
AcDbText
 10
-51.21482041039
 20
5.107806519293295
 30
0.0
 40
2.0
  1
4-90°
 50
45.0
 41
0.7692307692307694
  7
FDASTYLE0
 72
     5
 11
-45.55796616089762
 21
10.76466076878567
 31
0.0
100
AcDbText
  0
ENDBLK
  5
65
330
63
100
AcDbEntity
  8
0
100
AcDbBlockEnd
  0
BLOCK
  5
6B
330
6A
100
AcDbEntity
  8
0
100
AcDbBlockBegin
  2
_OPEN30
 70
     0
 71
     0
 10
0.0
 20
0.0
 30
0.0
  3
_OPEN30
  1

  0
LINE
  5
6D
330
6A
100
AcDbEntity
  8
0
  6
BYBLOCK
 62
     0
100
AcDbLine
 10
-1.0
 20
0.267949
 30
0.0
 11
0.0
 21
0.0
 31
0.0
  0
LINE
  5
6E
330
6A
100
AcDbEntity
  8
0
  6
BYBLOCK
 62
     0
100
AcDbLine
 10
0.0
 20
0.0
 30
0.0
 11
-1.0
 21
-0.267949
 31
0.0
  0
LINE
  5
6F
330
6A
100
AcDbEntity
  8
0
  6
BYBLOCK
 62
     0
100
AcDbLine
 10
0.0
 20
0.0
 30
0.0
 11
-1.0
 21
0.0
 31
0.0
  0
ENDBLK
  5
6C
330
6A
100
AcDbEntity
  8
0
100
AcDbBlockEnd
  0
ENDSEC
  0
SECTION
  2
ENTITIES
  0
POINT
  5
B7
330
1F
100
AcDbEntity
  8
0
  6
CONTINUOUS
 62
     5
100
AcDbPoint
 10
-594.5
 20
-420.5
 30
0.0
  0
LINE
  5
B8
330
1F
100
AcDbEntity
  8
0
  6
CONTINUOUS
 62
     9
100
AcDbLine
 10
26.32263736768067
 20
12.28843366478111
 30
0.0
 11
50.60118088871354
 21
12.28843366478111
 31
0.0
  0
LINE
  5
B9
330
1F
100
AcDbEntity
  8
0
  6
CONTINUOUS
 62
     9
100
AcDbLine
 10
30.6724141138528
 20
6.776078535648008
 30
0.0
 11
30.6724141138528
 21
-13.023921464352
 31
0.0
  0
LINE
  5
BA
330
1F
100
AcDbEntity
  8
0
  6
CONTINUOUS
 62
     9
100
AcDbLine
 10
-16.57909836065574
 20
-21.04413736661909
 30
0.0
 11
-50.95287567243932
 21
-21.04413736661909
 31
0.0
  0
CIRCLE
  5
BB
330
1F
100
AcDbEntity
  8
0
  6
CENTER
 62
     9
100
AcDbCircle
 10
-37.42623817725232
 20
-3.023921464352004
 30
0.0
 40
9.0
  0
LINE
  5
BC
330
1F
100
AcDbEntity
  8
0
  6
CENTER
 62
     9
100
AcDbLine
 10
28.5724141138528
 20
8.964063263778069
 30
0.0
 11
28.5724141138528
 21
2.736078535648002
 31
0.0
  0
LINE
  5
BD
330
1F
100
AcDbEntity
  8
0
  6
CENTER
 62
     9
100
AcDbLine
 10
-7.427585886147202
 20
-3.023921464352004
 30
0.0
 11
31.9398343381811
 21
-3.023921464352004
 31
0.0
  0
LINE
  5
BE
330
1F
100
AcDbEntity
  8
0
  6
DASHED2
 62
     9
100
AcDbLine
 10
30.4724141138528
 20
6.776078535648008
 30
0.0
 11
26.8724141138528
 21
6.776078535648008
 31
0.0
  0
LINE
  5
BF
330
1F
100
AcDbEntity
  8
0
  6
DASHED2
 62
     9
100
AcDbLine
 10
30.4724141138528
 20
-13.023921464352
 30
0.0
 11
26.8724141138528
 21
-13.023921464352
 31
0.0
  0
LINE
  5
C0
330
1F
100
AcDbEntity
  8
0
  6
DASHED2
 62
     9
100
AcDbLine
 10
26.97241411385277
 20
7.726078535648025
 30
0.0
 11
26.97241411385277
 21
7.976078535648025
 31
0.0
  0
LINE
  5
C1
330
1F
100
AcDbEntity
  8
0
  6
DASHED2
 62
     9
100
AcDbLine
 10
27.52241411385277
 20
7.176078535648028
 30
0.0
 11
26.97241411385277
 21
7.726078535648025
 31
0.0
  0
LINE
  5
C2
330
1F
100
AcDbEntity
  8
0
  6
DASHED2
 62
     9
100
AcDbLine
 10
29.62241411385276
 20
7.176078535648028
 30
0.0
 11
30.17241411385277
 21
7.726078535648025
 31
0.0
  0
LINE
  5
C3
330
1F
100
AcDbEntity
  8
0
  6
DASHED2
 62
     9
100
AcDbLine
 10
30.17241411385277
 20
7.726078535648025
 30
0.0
 11
30.17241411385277
 21
7.976078535648025
 31
0.0
  0
LINE
  5
C4
330
1F
100
AcDbEntity
  8
0
  6
DASHED2
 62
     9
100
AcDbLine
 10
29.62241411385276
 20
7.176078535648028
 30
0.0
 11
27.52241411385277
 21
7.176078535648028
 31
0.0
  0
LINE
  5
C5
330
1F
100
AcDbEntity
  8
0
  6
DASHED2
 62
     9
100
AcDbLine
 10
26.97241411385277
 20
7.726078535648025
 30
0.0
 11
30.17241411385277
 21
7.726078535648025
 31
0.0
  0
LINE
  5
C6
330
1F
100
AcDbEntity
  8
0
  6
DASHED2
 62
     9
100
AcDbLine
 10
26.8724141138528
 20
-13.023921464352
 30
0.0
 11
26.8724141138528
 21
6.776078535648008
 31
0.0
  0
LINE
  5
C7
330
1F
100
AcDbEntity
  8
0
  6
DASHED2
 62
     9
100
AcDbLine
 10
23.27241411385278
 20
-5.943921464351984
 30
0.0
 11
26.77241411385278
 21
-5.943921464351984
 31
0.0
  0
LINE
  5
C8
330
1F
100
AcDbEntity
  8
0
  6
DASHED2
 62
     9
100
AcDbLine
 10
23.27241411385278
 20
-0.1039214643520019
 30
0.0
 11
26.77241411385278
 21
-0.1039214643520019
 31
0.0
  0
LINE
  5
C9
330
1F
100
AcDbEntity
  8
0
  6
DASHED2
 62
     9
100
AcDbLine
 10
23.27241411385278
 20
-0.1039214643520019
 30
0.0
 11
23.27241411385278
 21
-5.943921464351984
 31
0.0
  0
LINE
  5
CA
330
1F
100
AcDbEntity
  8
0
  6
DASHED2
 62
     9
100
AcDbLine
 10
26.77241411385278
 20
-0.1039214643520019
 30
0.0
 11
26.77241411385278
 21
-5.943921464351984
 31
0.0
  0
LINE
  5
CB
330
1F
100
AcDbEntity
  8
0
  6
DASHED2
 62
     9
100
AcDbLine
 10
29.35591411385279
 20
7.176078535648028
 30
0.0
 11
29.35591411385279
 21
3.726078535648025
 31
0.0
  0
LINE
  5
CC
330
1F
100
AcDbEntity
  8
0
  6
DASHED2
 62
     9
100
AcDbLine
 10
27.7889141138528
 20
7.176078535648028
 30
0.0
 11
27.7889141138528
 21
3.726078535648025
 31
0.0
  0
LINE
  5
CD
330
1F
100
AcDbEntity
  8
0
  6
DASHED2
 62
     9
100
AcDbLine
 10
27.5724141138528
 20
7.176078535648028
 30
0.0
 11
27.5724141138528
 21
3.726078535648025
 31
0.0
  0
LINE
  5
CE
330
1F
100
AcDbEntity
  8
0
  6
DASHED2
 62
     9
100
AcDbLine
 10
27.5724141138528
 20
3.726078535648025
 30
0.0
 11
29.5724141138528
 21
3.726078535648025
 31
0.0
  0
LINE
  5
CF
330
1F
100
AcDbEntity
  8
0
  6
DASHED2
 62
     9
100
AcDbLine
 10
29.5724141138528
 20
3.726078535648025
 30
0.0
 11
29.5724141138528
 21
7.176078535648028
 31
0.0
  0
LINE
  5
D0
330
1F
100
AcDbEntity
  8
0
  6
CONTINUOUS
 62
     9
100
AcDbLine
 10
28.5724141138528
 20
7.976078535647996
 30
0.0
 11
26.32263736768067
 21
12.28843366478111
 31
0.0
  0
INSERT
  5
D1
330
1F
100
AcDbEntity
  8
0
 62
     9
100
AcDbBlockReference
  2
_OPEN30
 10
28.5724141138528
 20
7.976078535647996
 30
0.0
 41
1.500001393912182
 42
1.499994636989232
 50
297.5512693641565
  0
LINE
  5
D2
330
1F
100
AcDbEntity
  8
0
  6
CONTINUOUS
 62
     9
100
AcDbLine
 10
-46.79168135971829
 20
-4.478724296487392
 30
0.0
 11
-50.95287567243932
 21
-21.04413736661909
 31
0.0
  0
INSERT
  5
D3
330
1F
100
AcDbEntity
  8
0
 62
     9
100
AcDbBlockReference
  2
_OPEN30
 10
-46.79168135971829
 20
-4.478724296487392
 30
0.0
 41
1.500001393912182
 42
1.499994636989232
 50
75.89918614197246
  0
TEXT
  5
D4
330
1F
100
AcDbEntity
  8
0
 62
     7
100
AcDbText
 10
26.72931777851035
 20
12.60078879391422
 30
0.0
 40
2.0
  1
3-M2(P=0.4)×0.3
 41
0.7894736842105262
  7
FDASTYLE0
 72
     5
 11
50.72931777851035
 21
12.60078879391422
 31
0.0
100
AcDbText
  0
TEXT
  5
D5
330
1F
100
AcDbEntity
  8
0
 62
     7
100
AcDbText
 10
-19.2275858861472
 20
-8.793921464351993
 30
0.0
 40
2.0
  1
φ12
 50
90.0
 41
0.7499999999999997
  7
FDASTYLE0
 72
     5
 11
-19.2275858861472
 21
-3.993921464351995
 31
0.0
100
AcDbText
  0
TEXT
  5
D6
330
1F
100
AcDbEntity
  8
0
 62
     7
100
AcDbText
 10
-20.5275858861472
 20
-3.493921464351995
 30
0.0
 40
1.3
  1
+0.005
 50
90.0
 41
0.7999999999999999
  7
FDASTYLE0
 72
     5
 11
-20.5275858861472
 21
2.746078535648006
 31
0.0
100
AcDbText
  0
TEXT
  5
D7
330
1F
100
AcDbEntity
  8
0
 62
     7
100
AcDbText
 10
-19.1275858861472
 20
-3.493921464351995
 30
0.0
 40
1.3
  1
-0.030
 50
90.0
 41
0.7999999999999999
  7
FDASTYLE0
 72
     5
 11
-19.1275858861472
 21
2.746078535648006
 31
0.0
100
AcDbText
  0
TEXT
  5
D8
330
1F
100
AcDbEntity
  8
0
 62
     7
100
AcDbText
 10
-10.9275858861472
 20
3.976078535647996
 30
0.0
 40
2.0
  1
5
 50
90.0
 41
0.7999999999999998
  7
FDASTYLE0
 72
     5
 11
-10.9275858861472
 21
5.576078535647996
 31
0.0
100
AcDbText
  0
TEXT
  5
D9
330
1F
100
AcDbEntity
  8
0
 62
     7
100
AcDbText
 10
-12.2275858861472
 20
6.076078535647996
 30
0.0
 40
1.3
  1
±0.15
 50
90.0
 41
0.7692307692307694
  7
FDASTYLE0
 72
     5
 11
-12.2275858861472
 21
11.276078535648
 31
0.0
100
AcDbText
  0
TEXT
  5
DA
330
1F
100
AcDbEntity
  8
0
 62
     7
100
AcDbText
 10
35.1724141138528
 20
-9.518921464351987
 30
0.0
 40
2.0
  1
φ19.8
 50
90.0
 41
0.7692307692307692
  7
FDASTYLE0
 72
     5
 11
35.1724141138528
 21
-1.518921464351987
 31
0.0
100
AcDbText
  0
TEXT
  5
DB
330
1F
100
AcDbEntity
  8
0
 62
     7
100
AcDbText
 10
33.8724141138528
 20
-1.018921464351987
 30
0.0
 40
1.3
  1
+0.02
 50
90.0
 41
0.8000000000000005
  7
FDASTYLE0
 72
     5
 11
33.8724141138528
 21
4.181078535648016
 31
0.0
100
AcDbText
  0
TEXT
  5
DC
330
1F
100
AcDbEntity
  8
0
 62
     7
100
AcDbText
 10
35.2724141138528
 20
-1.018921464351987
 30
0.0
 40
1.3
  1
-0.01
 50
90.0
 41
0.8000000000000005
  7
FDASTYLE0
 72
     5
 11
35.2724141138528
 21
4.181078535648016
 31
0.0
100
AcDbText
  0
TEXT
  5
DD
330
1F
100
AcDbEntity
  8
0
 62
     7
100
AcDbText
 10
39.1724141138528
 20
-7.389921464351989
 30
0.0
 40
2.0
  1
φ22
 50
90.0
 41
0.7499999999999996
  7
FDASTYLE0
 72
     5
 11
39.1724141138528
 21
-2.589921464351992
 31
0.0
100
AcDbText
  0
TEXT
  5
DE
330
1F
100
AcDbEntity
  8
0
 62
     7
100
AcDbText
 10
37.8724141138528
 20
-2.089921464351992
 30
0.0
 40
1.3
  1
±0.2
 50
90.0
 41
0.7619047619047612
  7
FDASTYLE0
 72
     5
 11
37.8724141138528
 21
2.070078535648005
 31
0.0
100
AcDbText
  0
TEXT
  5
DF
330
1F
100
AcDbEntity
  8
0
 62
     7
100
AcDbText
 10
-1.277585886147202
 20
20.476078535648
 30
0.0
 40
2.0
  1
14
 41
0.8
  7
FDASTYLE0
 72
     5
 11
1.922414113852799
 21
20.476078535648
 31
0.0
100
AcDbText
  0
TEXT
  5
E0
330
1F
100
AcDbEntity
  8
0
 62
     7
100
AcDbText
 10
15.8224141138528
 20
20.476078535648
 30
0.0
 40
2.0
  1
22.9
 41
0.7999999999999998
  7
FDASTYLE0
 72
     5
 11
22.2224141138528
 21
20.476078535648
 31
0.0
100
AcDbText
  0
TEXT
  5
E1
330
1F
100
AcDbEntity
  8
0
 62
     7
100
AcDbText
 10
32.62130411385279
 20
-29.023921464352
 30
0.0
 40
2.0
  1
（ＰＩＮＩＯＮ　ＰＯＳＩＴＩＯＮ）
 41
0.6666666666666667
  7
FDASTYLE0
 72
     5
 11
59.82130411385279
 21
-29.023921464352
 31
0.0
100
AcDbText
  0
TEXT
  5
E2
330
1F
100
AcDbEntity
  8
0
 62
     7
100
AcDbText
 10
-49.95287567243932
 20
-20.54413736661909
 30
0.0
 40
2.0
  1
4-Ｍ3（Ｐ＝0.5）ＤＥＰＴＨ　4ＭＡＸ
 41
0.7058823529411765
  7
FDASTYLE0
 72
     5
 11
-16.35287567243932
 21
-20.54413736661909
 31
0.0
100
AcDbText
  0
CIRCLE
  5
E3
330
1F
100
AcDbEntity
  8
0
  6
CONTINUOUS
 62
     3
100
AcDbCircle
 10
-37.42623817725232
 20
-3.023921464352004
 30
0.0
 40
6.0
  0
LINE
  5
E4
330
1F
100
AcDbEntity
  8
0
  6
CONTINUOUS
 62
     3
100
AcDbLine
 10
-39.66230615475211
 20
-1.023921464352004
 30
0.0
 11
-35.19017019975254
 21
-1.023921464352004
 31
0.0
  0
CIRCLE
  5
E5
330
1F
100
AcDbEntity
  8
0
  6
CONTINUOUS
 62
     3
100
AcDbCircle
 10
-37.42623817725232
 20
-3.023921464352004
 30
0.0
 40
3.0
  0
ARC
  5
E6
330
1F
100
AcDbEntity
  8
0
  6
CONTINUOUS
 62
     3
100
AcDbCircle
 10
-37.42623817725232
 20
-3.023921464352004
 30
0.0
 40
2.599999999999994
100
AcDbArc
 50
129.715137231826
 51
410.284862768174
  0
ARC
  5
E7
330
1F
100
AcDbEntity
  8
0
  6
CONTINUOUS
 62
     3
100
AcDbCircle
 10
-37.42623817725232
 20
-3.023921464352004
 30
0.0
 40
5.399999999999995
100
AcDbArc
 50
234.2411941295762
 51
305.7588058704238
  0
CIRCLE
  5
E8
330
1F
100
AcDbEntity
  8
0
  6
CONTINUOUS
 62
     3
100
AcDbCircle
 10
-37.42623817725232
 20
5.976078535647996
 30
0.0
 40
1.230000000000004
  0
CIRCLE
  5
E9
330
1F
100
AcDbEntity
  8
0
  6
CONTINUOUS
 62
     3
100
AcDbCircle
 10
-28.42623817725232
 20
-3.023921464352004
 30
0.0
 40
1.230000000000004
  0
CIRCLE
  5
EA
330
1F
100
AcDbEntity
  8
0
  6
CONTINUOUS
 62
     3
100
AcDbCircle
 10
-46.42623817725232
 20
-3.023921464352004
 30
0.0
 40
1.230000000000004
  0
LINE
  5
EB
330
1F
100
AcDbEntity
  8
0
  6
CONTINUOUS
 62
     3
100
AcDbLine
 10
-35.10789141917739
 20
-4.927935200994494
 30
0.0
 11
-34.50195274000773
 21
-7.18932913792683
 31
0.0
  0
LINE
  5
EC
330
1F
100
AcDbEntity
  8
0
  6
CONTINUOUS
 62
     3
100
AcDbLine
 10
-39.74458493532728
 20
-4.927935200994494
 30
0.0
 11
-40.35052361449693
 21
-7.18932913792683
 31
0.0
  0
ARC
  5
ED
330
1F
100
AcDbEntity
  8
0
  6
CONTINUOUS
 62
     3
100
AcDbCircle
 10
-34.212174992121
 20
-7.111683424396073
 30
0.0
 40
0.3
100
AcDbArc
 50
195.0
 51
308.1767224300396
  0
ARC
  5
EE
330
1F
100
AcDbEntity
  8
0
  6
CONTINUOUS
 62
     3
100
AcDbCircle
 10
-37.42623817725232
 20
-3.023921464352004
 30
0.0
 40
5.5
100
AcDbArc
 50
308.1767224300396
 51
591.8232775699603
  0
ARC
  5
EF
330
1F
100
AcDbEntity
  8
0
  6
CONTINUOUS
 62
     3
100
AcDbCircle
 10
-40.64030136238365
 20
-7.111683424396073
 30
0.0
 40
0.3
100
AcDbArc
 50
231.8232775699604
 51
345.0
  0
LINE
  5
F0
330
1F
100
AcDbEntity
  8
0
  6
CONTINUOUS
 62
     3
100
AcDbLine
 10
-34.42623817725232
 20
-3.023921464352004
 30
0.0
 11
-33.4375040422165
 21
-3.023921464352004
 31
0.0
  0
LINE
  5
F1
330
1F
100
AcDbEntity
  8
0
  6
CONTINUOUS
 62
     3
100
AcDbLine
 10
-40.42623817725232
 20
-3.023921464352004
 30
0.0
 11
-41.41497231228815
 21
-3.023921464352004
 31
0.0
  0
ARC
  5
F2
330
1F
100
AcDbEntity
  8
0
  6
CONTINUOUS
 62
     3
100
AcDbCircle
 10
-33.4375040422165
 20
-2.723921464351992
 30
0.0
 40
0.3
100
AcDbArc
 50
270.0
 51
364.3012223046704
  0
ARC
  5
F3
330
1F
100
AcDbEntity
  8
0
  6
CONTINUOUS
 62
     3
100
AcDbCircle
 10
-41.41497231228815
 20
-2.723921464351992
 30
0.0
 40
0.3
100
AcDbArc
 50
175.6987776953297
 51
270.0
  0
ARC
  5
F4
330
1F
100
AcDbEntity
  8
0
  6
CONTINUOUS
 62
     3
100
AcDbCircle
 10
-37.42623817725232
 20
-3.023921464352004
 30
0.0
 40
4.3
100
AcDbArc
 50
4.301222304670368
 51
70.35706914084175
  0
ARC
  5
F5
330
1F
100
AcDbEntity
  8
0
  6
CONTINUOUS
 62
     3
100
AcDbCircle
 10
-37.42623817725232
 20
-3.023921464352004
 30
0.0
 40
4.3
100
AcDbArc
 50
109.6429308591583
 51
175.6987776953297
  0
ARC
  5
F6
330
1F
100
AcDbEntity
  8
0
  6
CONTINUOUS
 62
     3
100
AcDbCircle
 10
-36.08160879769662
 20
0.7433018939897487
 30
0.0
 40
0.3
100
AcDbArc
 50
70.35706914084175
 51
164.6582914455121
  0
ARC
  5
F7
330
1F
100
AcDbEntity
  8
0
  6
CONTINUOUS
 62
     3
100
AcDbCircle
 10
-38.77086755680802
 20
0.7433018939897487
 30
0.0
 40
0.3
100
AcDbArc
 50
15.34170855448794
 51
109.6429308591583
  0
LINE
  5
F8
330
1F
100
AcDbEntity
  8
0
  6
CONTINUOUS
 62
     3
100
AcDbLine
 10
-36.63251278393296
 20
-0.1308262360541086
 30
0.0
 11
-36.37091832052642
 21
0.8226744333216907
 31
0.0
  0
LINE
  5
F9
330
1F
100
AcDbEntity
  8
0
  6
CONTINUOUS
 62
     3
100
AcDbLine
 10
-38.2199635705717
 20
-0.1308262360541086
 30
0.0
 11
-38.48155803397824
 21
0.8226744333216907
 31
0.0
  0
CIRCLE
  5
FA
330
1F
100
AcDbEntity
  8
0
  6
CONTINUOUS
 62
     3
100
AcDbCircle
 10
-37.42623817725232
 20
-3.023921464352004
 30
0.0
 40
11.0
  0
CIRCLE
  5
FB
330
1F
100
AcDbEntity
  8
0
  6
CONTINUOUS
 62
     3
100
AcDbCircle
 10
-37.42623817725232
 20
-3.023921464352004
 30
0.0
 40
10.7
  0
CIRCLE
  5
FC
330
1F
100
AcDbEntity
  8
0
  6
CONTINUOUS
 62
     3
100
AcDbCircle
 10
-37.42623817725232
 20
-12.023921464352
 30
0.0
 40
1.230000000000004
  0
LINE
  5
FD
330
1F
100
AcDbEntity
  8
0
  6
CONTINUOUS
 62
     3
100
AcDbLine
 10
7.572414113852798
 20
7.776078535648008
 30
0.0
 11
7.772414113852797
 21
7.976078535647996
 31
0.0
  0
LINE
  5
FE
330
1F
100
AcDbEntity
  8
0
  6
CONTINUOUS
 62
     3
100
AcDbLine
 10
7.372414113852802
 20
-9.023921464351982
 30
0.0
 11
5.572414113852798
 21
-9.023921464351982
 31
0.0
  0
LINE
  5
FF
330
1F
100
AcDbEntity
  8
0
  6
CONTINUOUS
 62
     3
100
AcDbLine
 10
5.572414113852798
 20
2.976078535647996
 30
0.0
 11
7.372414113852802
 21
2.976078535648011
 31
0.0
  0
LINE
  5
100
330
1F
100
AcDbEntity
  8
0
  6
CONTINUOUS
 62
     3
100
AcDbLine
 10
5.072414113852798
 20
2.376078535648002
 30
0.0
 11
5.572414113852798
 21
2.876078535648002
 31
0.0
  0
LINE
  5
101
330
1F
100
AcDbEntity
  8
0
  6
CONTINUOUS
 62
     3
100
AcDbLine
 10
5.072414113852798
 20
-8.423921464351988
 30
0.0
 11
5.572414113852798
 21
-8.923921464351988
 31
0.0
  0
LINE
  5
102
330
1F
100
AcDbEntity
  8
0
  6
CONTINUOUS
 62
     3
100
AcDbLine
 10
5.072414113852798
 20
2.376078535648002
 30
0.0
 11
5.072414113852798
 21
-8.423921464351988
 31
0.0
  0
ARC
  5
103
330
1F
100
AcDbEntity
  8
0
  6
CONTINUOUS
 62
     3
100
AcDbCircle
 10
7.372414113852802
 20
2.776078535648008
 30
0.0
 40
0.2
100
AcDbArc
 50
0.0
 51
90.00000000000051
  0
ARC
  5
104
330
1F
100
AcDbEntity
  8
0
  6
CONTINUOUS
 62
     3
100
AcDbCircle
 10
7.372414113852802
 20
-8.823921464351979
 30
0.0
 40
0.2
100
AcDbArc
 50
270.0
 51
360.0
  0
LINE
  5
105
330
1F
100
AcDbEntity
  8
0
  6
CONTINUOUS
 62
     3
100
AcDbLine
 10
5.572414113852798
 20
-9.023921464351982
 30
0.0
 11
5.572414113852798
 21
2.976078535647996
 31
0.0
  0
LINE
  5
106
330
1F
100
AcDbEntity
  8
0
  6
CONTINUOUS
 62
     3
100
AcDbLine
 10
-6.427585886147202
 20
-1.023921464352004
 30
0.0
 11
-6.427585886147202
 21
-5.623921464351991
 31
0.0
  0
LINE
  5
107
330
1F
100
AcDbEntity
  8
0
  6
CONTINUOUS
 62
     3
100
AcDbLine
 10
-6.427585886147202
 20
-1.023921464352004
 30
0.0
 11
1.572414113852799
 21
-1.023921464352004
 31
0.0
  0
LINE
  5
108
330
1F
100
AcDbEntity
  8
0
  6
CONTINUOUS
 62
     3
100
AcDbLine
 10
1.572414113852799
 20
-1.023921464352004
 30
0.0
 11
1.572414113852799
 21
-0.0239214643520036
 31
0.0
  0
LINE
  5
109
330
1F
100
AcDbEntity
  8
0
  6
CONTINUOUS
 62
     3
100
AcDbLine
 10
-6.427585886147202
 20
-5.623921464351991
 30
0.0
 11
-6.027585886147203
 21
-6.023921464351997
 31
0.0
  0
LINE
  5
10A
330
1F
100
AcDbEntity
  8
0
  6
CONTINUOUS
 62
     3
100
AcDbLine
 10
-6.027585886147203
 20
-6.023921464351997
 30
0.0
 11
-6.027585886147203
 21
-1.023921464352004
 31
0.0
  0
LINE
  5
10B
330
1F
100
AcDbEntity
  8
0
  6
CONTINUOUS
 62
     3
100
AcDbLine
 10
-6.027585886147203
 20
-6.023921464351997
 30
0.0
 11
4.472414113852797
 21
-6.023921464351997
 31
0.0
  0
LINE
  5
10C
330
1F
100
AcDbEntity
  8
0
  6
CONTINUOUS
 62
     3
100
AcDbLine
 10
1.572414113852799
 20
-0.0239214643520036
 30
0.0
 11
4.472414113852797
 21
-0.0239214643520036
 31
0.0
  0
LINE
  5
10D
330
1F
100
AcDbEntity
  8
0
  6
CONTINUOUS
 62
     3
100
AcDbLine
 10
4.472414113852797
 20
2.476078535647996
 30
0.0
 11
4.472414113852797
 21
-7.411683424396085
 31
0.0
  0
LINE
  5
10E
330
1F
100
AcDbEntity
  8
0
  6
CONTINUOUS
 62
     3
100
AcDbLine
 10
4.472414113852797
 20
2.476078535647996
 30
0.0
 11
5.072414113852798
 21
2.476078535647996
 31
0.0
  0
LINE
  5
10F
330
1F
100
AcDbEntity
  8
0
  6
CONTINUOUS
 62
     3
100
AcDbLine
 10
4.472414113852797
 20
-7.411683424396085
 30
0.0
 11
5.072414113852798
 21
-7.411683424396085
 31
0.0
  0
LINE
  5
110
330
1F
100
AcDbEntity
  8
0
  6
CONTINUOUS
 62
     3
100
AcDbLine
 10
7.772414113852797
 20
-14.023921464352
 30
0.0
 11
30.3724141138528
 21
-14.023921464352
 31
0.0
  0
LINE
  5
111
330
1F
100
AcDbEntity
  8
0
  6
CONTINUOUS
 62
     3
100
AcDbLine
 10
7.572414113852798
 20
7.776078535648008
 30
0.0
 11
7.572414113852798
 21
-13.82392146435199
 31
0.0
  0
LINE
  5
112
330
1F
100
AcDbEntity
  8
0
  6
CONTINUOUS
 62
     3
100
AcDbLine
 10
30.4724141138528
 20
7.876078535648002
 30
0.0
 11
30.4724141138528
 21
-13.92392146435199
 31
0.0
  0
LINE
  5
113
330
1F
100
AcDbEntity
  8
0
  6
CONTINUOUS
 62
     3
100
AcDbLine
 10
30.3724141138528
 20
7.976078535647996
 30
0.0
 11
30.4724141138528
 21
7.876078535648002
 31
0.0
  0
LINE
  5
114
330
1F
100
AcDbEntity
  8
0
  6
CONTINUOUS
 62
     3
100
AcDbLine
 10
30.16961821237323
 20
-14.023921464352
 30
0.0
 11
30.26961821237323
 21
-13.92392146435199
 31
0.0
  0
LINE
  5
115
330
1F
100
AcDbEntity
  8
0
  6
CONTINUOUS
 62
     3
100
AcDbLine
 10
7.572414113852798
 20
-13.82392146435199
 30
0.0
 11
7.772414113852797
 21
-14.023921464352
 31
0.0
  0
LINE
  5
116
330
1F
100
AcDbEntity
  8
0
  6
CONTINUOUS
 62
     3
100
AcDbLine
 10
7.772414113852797
 20
7.976078535647996
 30
0.0
 11
7.772414113852797
 21
-14.023921464352
 31
0.0
  0
LINE
  5
117
330
1F
100
AcDbEntity
  8
0
  6
CONTINUOUS
 62
     3
100
AcDbLine
 10
30.3724141138528
 20
-14.023921464352
 30
0.0
 11
30.4724141138528
 21
-13.923921464352
 31
0.0
  0
LINE
  5
118
330
1F
100
AcDbEntity
  8
0
  6
CONTINUOUS
 62
     3
100
AcDbLine
 10
7.772414113852797
 20
7.976078535647996
 30
0.0
 11
30.3724141138528
 21
7.976078535647996
 31
0.0
  0
LINE
  5
119
330
1F
100
AcDbEntity
  8
0
  6
CENTER
 62
     9
100
AcDbLine
 10
-25.42623817725232
 20
-3.023921464352004
 30
0.0
 11
-49.42623817725232
 21
-3.023921464352004
 31
0.0
  0
LINE
  5
11A
330
1F
100
AcDbEntity
  8
0
  6
CENTER
 62
     9
100
AcDbLine
 10
-37.42623817725232
 20
8.976078535647996
 30
0.0
 11
-37.42623817725232
 21
-15.023921464352
 31
0.0
  0
CIRCLE
  5
11B
330
1F
100
AcDbEntity
  8
0
  6
CONTINUOUS
 62
     9
100
AcDbCircle
 10
-37.42623817725232
 20
5.976078535647996
 30
0.0
 40
1.5
  0
CIRCLE
  5
11C
330
1F
100
AcDbEntity
  8
0
  6
CONTINUOUS
 62
     9
100
AcDbCircle
 10
-28.42623817725232
 20
-3.023921464352004
 30
0.0
 40
1.5
  0
CIRCLE
  5
11D
330
1F
100
AcDbEntity
  8
0
  6
CONTINUOUS
 62
     9
100
AcDbCircle
 10
-46.42623817725232
 20
-3.023921464352004
 30
0.0
 40
1.5
  0
CIRCLE
  5
11E
330
1F
100
AcDbEntity
  8
0
  6
CONTINUOUS
 62
     9
100
AcDbCircle
 10
-37.42623817725232
 20
-12.023921464352
 30
0.0
 40
1.5
  0
LINE
  5
11F
330
1F
100
AcDbEntity
  8
0
  6
CONTINUOUS
 62
     9
100
AcDbLine
 10
-6.927585886147202
 20
-1.023921464352004
 30
0.0
 11
-10.9275858861472
 21
-1.023921464352004
 31
0.0
  0
LINE
  5
120
330
1F
100
AcDbEntity
  8
0
  6
CONTINUOUS
 62
     9
100
AcDbLine
 10
-6.527585886147203
 20
-6.023921464351997
 30
0.0
 11
-11.9275858861472
 21
-6.023921464351997
 31
0.0
  0
LINE
  5
121
330
1F
100
AcDbEntity
  8
0
  6
CONTINUOUS
 62
     9
100
AcDbLine
 10
-10.4275858861472
 20
-6.023921464351997
 30
0.0
 11
-10.4275858861472
 21
-1.023921464352004
 31
0.0
  0
LINE
  5
122
330
1F
100
AcDbEntity
  8
0
  6
CONTINUOUS
 62
     9
100
AcDbLine
 10
5.072414113852798
 20
-9.023921464351982
 30
0.0
 11
-19.2275858861472
 21
-9.023921464351982
 31
0.0
  0
LINE
  5
123
330
1F
100
AcDbEntity
  8
0
  6
CONTINUOUS
 62
     9
100
AcDbLine
 10
5.072414113852798
 20
2.976078535647996
 30
0.0
 11
-19.2275858861472
 21
2.976078535647996
 31
0.0
  0
LINE
  5
124
330
1F
100
AcDbEntity
  8
0
  6
CONTINUOUS
 62
     9
100
AcDbLine
 10
30.8724141138528
 20
-13.023921464352
 30
0.0
 11
36.1724141138528
 21
-13.023921464352
 31
0.0
  0
LINE
  5
125
330
1F
100
AcDbEntity
  8
0
  6
CONTINUOUS
 62
     9
100
AcDbLine
 10
30.8724141138528
 20
6.776078535648008
 30
0.0
 11
36.1724141138528
 21
6.776078535648008
 31
0.0
  0
LINE
  5
126
330
1F
100
AcDbEntity
  8
0
  6
CONTINUOUS
 62
     9
100
AcDbLine
 10
30.8724141138528
 20
-14.023921464352
 30
0.0
 11
40.1724141138528
 21
-14.023921464352
 31
0.0
  0
LINE
  5
127
330
1F
100
AcDbEntity
  8
0
  6
CONTINUOUS
 62
     9
100
AcDbLine
 10
30.8724141138528
 20
7.976078535647996
 30
0.0
 11
40.1724141138528
 21
7.976078535647996
 31
0.0
  0
LINE
  5
128
330
1F
100
AcDbEntity
  8
0
  6
CONTINUOUS
 62
     9
100
AcDbLine
 10
-6.427585886147202
 20
-0.5239214643520036
 30
0.0
 11
-6.427585886147202
 21
20.476078535648
 31
0.0
  0
LINE
  5
129
330
1F
100
AcDbEntity
  8
0
  6
CONTINUOUS
 62
     9
100
AcDbLine
 10
7.572414113852798
 20
8.276078535648008
 30
0.0
 11
7.572414113852798
 21
20.476078535648
 31
0.0
  0
LINE
  5
12A
330
1F
100
AcDbEntity
  8
0
  6
CONTINUOUS
 62
     9
100
AcDbLine
 10
30.6724141138528
 20
6.776078535648008
 30
0.0
 11
30.4724141138528
 21
6.776078535648008
 31
0.0
  0
LINE
  5
12B
330
1F
100
AcDbEntity
  8
0
  6
CONTINUOUS
 62
     9
100
AcDbLine
 10
30.6724141138528
 20
-13.023921464352
 30
0.0
 11
30.4724141138528
 21
-13.023921464352
 31
0.0
  0
LINE
  5
12C
330
1F
100
AcDbEntity
  8
0
  6
CONTINUOUS
 62
     9
100
AcDbLine
 10
30.4724141138528
 20
8.376078535648002
 30
0.0
 11
30.4724141138528
 21
11.47709225280595
 31
0.0
  0
LINE
  5
12D
330
1F
100
AcDbEntity
  8
0
  6
CONTINUOUS
 62
     9
100
AcDbLine
 10
30.4724141138528
 20
14.74496199942499
 30
0.0
 11
30.4724141138528
 21
20.476078535648
 31
0.0
  0
LINE
  5
12E
330
1F
100
AcDbEntity
  8
0
  6
CONTINUOUS
 62
     9
100
AcDbLine
 10
-18.7275858861472
 20
-9.023921464351982
 30
0.0
 11
-18.7275858861472
 21
2.976078535647996
 31
0.0
  0
INSERT
  5
12F
330
1F
100
AcDbEntity
  8
0
 62
     9
100
AcDbBlockReference
  2
_OPEN30
 10
-18.7275858861472
 20
-9.023921464351982
 30
0.0
 41
1.500001393912182
 42
1.499994636989232
 50
270.0
  0
INSERT
  5
130
330
1F
100
AcDbEntity
  8
0
 62
     9
100
AcDbBlockReference
  2
_OPEN30
 10
-18.7275858861472
 20
2.976078535647996
 30
0.0
 41
1.500001393912182
 42
1.499994636989232
 50
90.0
  0
LINE
  5
131
330
1F
100
AcDbEntity
  8
0
  6
CONTINUOUS
 62
     9
100
AcDbLine
 10
-6.427585886147202
 20
19.976078535648
 30
0.0
 11
7.572414113852798
 21
19.976078535648
 31
0.0
  0
INSERT
  5
132
330
1F
100
AcDbEntity
  8
0
 62
     9
100
AcDbBlockReference
  2
_OPEN30
 10
-6.427585886147202
 20
19.976078535648
 30
0.0
 41
1.500001393912182
 42
1.499994636989232
 50
180.0
  0
INSERT
  5
133
330
1F
100
AcDbEntity
  8
0
 62
     9
100
AcDbBlockReference
  2
_OPEN30
 10
7.572414113852798
 20
19.976078535648
 30
0.0
 41
1.500001393912182
 42
1.499994636989232
 50
360.0
  0
LINE
  5
134
330
1F
100
AcDbEntity
  8
0
  6
CONTINUOUS
 62
     9
100
AcDbLine
 10
35.6724141138528
 20
-13.023921464352
 30
0.0
 11
35.6724141138528
 21
6.776078535648008
 31
0.0
  0
INSERT
  5
135
330
1F
100
AcDbEntity
  8
0
 62
     9
100
AcDbBlockReference
  2
_OPEN30
 10
35.6724141138528
 20
-13.023921464352
 30
0.0
 41
1.500001393912182
 42
1.499994636989232
 50
270.0
  0
INSERT
  5
136
330
1F
100
AcDbEntity
  8
0
 62
     9
100
AcDbBlockReference
  2
_OPEN30
 10
35.6724141138528
 20
6.776078535648008
 30
0.0
 41
1.500001393912182
 42
1.499994636989232
 50
90.0
  0
LINE
  5
137
330
1F
100
AcDbEntity
  8
0
  6
CONTINUOUS
 62
     9
100
AcDbLine
 10
39.6724141138528
 20
-14.023921464352
 30
0.0
 11
39.6724141138528
 21
7.976078535647996
 31
0.0
  0
INSERT
  5
138
330
1F
100
AcDbEntity
  8
0
 62
     9
100
AcDbBlockReference
  2
_OPEN30
 10
39.6724141138528
 20
-14.023921464352
 30
0.0
 41
1.500001393912182
 42
1.499994636989232
 50
270.0
  0
INSERT
  5
139
330
1F
100
AcDbEntity
  8
0
 62
     9
100
AcDbBlockReference
  2
_OPEN30
 10
39.6724141138528
 20
7.976078535647996
 30
0.0
 41
1.500001393912182
 42
1.499994636989232
 50
90.0
  0
LINE
  5
13A
330
1F
100
AcDbEntity
  8
0
  6
CONTINUOUS
 62
     9
100
AcDbLine
 10
7.572414113852798
 20
19.976078535648
 30
0.0
 11
30.4724141138528
 21
19.976078535648
 31
0.0
  0
INSERT
  5
13B
330
1F
100
AcDbEntity
  8
0
 62
     9
100
AcDbBlockReference
  2
_OPEN30
 10
7.572414113852798
 20
19.976078535648
 30
0.0
 41
1.500001393912182
 42
1.499994636989232
 50
180.0
  0
INSERT
  5
13C
330
1F
100
AcDbEntity
  8
0
 62
     9
100
AcDbBlockReference
  2
_OPEN30
 10
30.4724141138528
 20
19.976078535648
 30
0.0
 41
1.500001393912182
 42
1.499994636989232
 50
360.0
  0
LINE
  5
13D
330
1F
100
AcDbEntity
  8
0
  6
CONTINUOUS
 62
     9
100
AcDbLine
 10
-10.4275858861472
 20
12.176078535648
 30
0.0
 11
-10.4275858861472
 21
-1.023921464352004
 31
0.0
  0
INSERT
  5
13E
330
1F
100
AcDbEntity
  8
0
 62
     9
100
AcDbBlockReference
  2
_OPEN30
 10
-10.4275858861472
 20
-1.023921464352004
 30
0.0
 41
1.500001393912182
 42
1.499994636989232
 50
270.0
  0
LINE
  5
13F
330
1F
100
AcDbEntity
  8
0
  6
CONTINUOUS
 62
     9
100
AcDbLine
 10
-10.4275858861472
 20
-8.523921464351997
 30
0.0
 11
-10.4275858861472
 21
-6.023921464351997
 31
0.0
  0
INSERT
  5
140
330
1F
100
AcDbEntity
  8
0
 62
     9
100
AcDbBlockReference
  2
_OPEN30
 10
-10.4275858861472
 20
-6.023921464351997
 30
0.0
 41
1.500001393912182
 42
1.499994636989232
 50
90.0
  0
LINE
  5
141
330
1F
100
AcDbEntity
  8
0
  6
CONTINUOUS
 62
     4
100
AcDbLine
 10
4.472414113852797
 20
-0.0239214643520036
 30
0.0
 11
4.472414113852797
 21
-6.023921464351997
 31
0.0
  0
INSERT
  5
142
330
1F
100
AcDbEntity
  8
0
  6
CONTINUOUS
100
AcDbBlockReference
  2
DA_IMAGEDIMGROUP_1
 10
0.0
 20
0.0
 30
0.0
  0
INSERT
  5
143
330
1F
100
AcDbEntity
  8
0
  6
CONTINUOUS
100
AcDbBlockReference
  2
DA_IMAGEDIMGROUP_2
 10
0.0
 20
0.0
 30
0.0
  0
INSERT
  5
144
330
1F
100
AcDbEntity
  8
0
  6
CONTINUOUS
100
AcDbBlockReference
  2
DA_IMAGEDIMGROUP_3
 10
0.0
 20
0.0
 30
0.0
  0
INSERT
  5
145
330
1F
100
AcDbEntity
  8
0
  6
CONTINUOUS
100
AcDbBlockReference
  2
DA_IMAGEDIMGROUP_4
 10
0.0
 20
0.0
 30
0.0
  0
INSERT
  5
146
330
1F
100
AcDbEntity
  8
0
  6
CONTINUOUS
100
AcDbBlockReference
  2
DA_IMAGEDIMGROUP_5
 10
0.0
 20
0.0
 30
0.0
  0
INSERT
  5
147
330
1F
100
AcDbEntity
  8
0
  6
CONTINUOUS
100
AcDbBlockReference
  2
DA_IMAGEDIMGROUP_6
 10
0.0
 20
0.0
 30
0.0
  0
INSERT
  5
148
330
1F
100
AcDbEntity
  8
0
  6
CONTINUOUS
100
AcDbBlockReference
  2
DA_IMAGEDIMGROUP_7
 10
0.0
 20
0.0
 30
0.0
  0
INSERT
  5
149
330
1F
100
AcDbEntity
  8
0
  6
CONTINUOUS
100
AcDbBlockReference
  2
DA_IMAGEDIMGROUP_8
 10
0.0
 20
0.0
 30
0.0
  0
INSERT
  5
14A
330
1F
100
AcDbEntity
  8
0
  6
CONTINUOUS
100
AcDbBlockReference
  2
DA_IMAGEDIMGROUP_9
 10
0.0
 20
0.0
 30
0.0
  0
INSERT
  5
14B
330
1F
100
AcDbEntity
  8
0
  6
CONTINUOUS
100
AcDbBlockReference
  2
DA_IMAGEDIMGROUP_10
 10
0.0
 20
0.0
 30
0.0
  0
TEXT
  5
14C
330
1F
100
AcDbEntity
  8
LAYER0001
 62
     7
100
AcDbText
 10
-21.44897031778156
 20
-35.93015158021326
 30
0.0
 40
2.0
  1
※　モータ端面からの寸法　Dimension from motor end face
 41
0.7533632286995515
  7
FDASTYLE0
 72
     5
 11
45.75102968221844
 21
-35.93015158021326
 31
0.0
100
AcDbText
  0
VIEWPORT
  5
47
330
1B
100
AcDbEntity
 67
     1
  8
0
100
AcDbViewport
 10
-269.8560146097403
 20
-193.738039267824
 30
0.0
 40
1950.863912341559
 41
1363.571764393056
 68
     1
 69
     1
1001
ACAD
1000
MVIEW
1002
{
1070
    16
1010
0.0
1020
0.0
1030
0.0
1010
0.0
1020
0.0
1030
1.0
1040
0.0
1040
1363.571764393056
1040
-269.8560146097403
1040
-193.738039267824
1040
50.0
1040
0.0
1040
0.0
1070
     0
1070
   100
1070
     0
1070
     1
1070
     0
1070
     0
1070
     0
1070
     0
1040
0.0
1040
0.0
1040
0.0
1040
0.5
1040
0.5
1040
0.0
1040
0.0
1070
     0
1002
{
1002
}
1002
}
  0
ENDSEC
  0
SECTION
  2
OBJECTS
  0
DICTIONARY
  5
C
330
0
100
AcDbDictionary
  3
ACAD_GROUP
350
D
  3
ACAD_LAYOUT
350
1A
  3
ACAD_MLINESTYLE
350
17
  3
ACAD_PLOTSETTINGS
350
19
  3
ACDBHEADERROUNDTRIPXREC
350
14D
  0
DICTIONARY
  5
D
102
{ACAD_REACTORS
330
C
102
}
330
C
100
AcDbDictionary
  0
DICTIONARY
  5
1A
102
{ACAD_REACTORS
330
C
102
}
330
C
100
AcDbDictionary
  0
DICTIONARY
  5
17
102
{ACAD_REACTORS
330
C
102
}
330
C
100
AcDbDictionary
  3
STANDARD
350
18
  0
DICTIONARY
  5
19
102
{ACAD_REACTORS
330
C
102
}
330
C
100
AcDbDictionary
  0
DICTIONARY
  5
14D
102
{ACAD_REACTORS
330
C
102
}
330
C
100
AcDbDictionary
  3
CEPSNTYPE
350
156
  3
DIMSTYLEDATA
350
16C
  3
FINGERPRINTGUID
350
157
  3
HYPERLINKBASE
350
150
  3
INSUNITS
350
155
  3
LAYOUTDICT
350
152
  3
LWETCUNION
350
154
  3
PLOTSETDICT
350
153
  3
PSVPSCALE
350
159
  3
PUCSBASE
350
15C
  3
PUCSORGBACK
350
162
  3
PUCSORGBOTTOM
350
15E
  3
PUCSORGFRONT
350
161
  3
PUCSORGLEFT
350
15F
  3
PUCSORGRIGHT
350
160
  3
PUCSORGTOP
350
15D
  3
PUCSORTHOREF
350
15A
  3
PUCSORTHOVIEW
350
15B
  3
STYLESHEET
350
151
  3
TSTACKALIGN
350
14E
  3
TSTACKSIZE
350
14F
  3
UCSBASE
350
165
  3
UCSORGBACK
350
16B
  3
UCSORGBOTTOM
350
167
  3
UCSORGFRONT
350
16A
  3
UCSORGLEFT
350
168
  3
UCSORGRIGHT
350
169
  3
UCSORGTOP
350
166
  3
UCSORTHOREF
350
163
  3
UCSORTHOVIEW
350
164
  3
VERSIONGUID
350
158
  0
MLINESTYLE
  5
18
102
{ACAD_REACTORS
330
17
102
}
330
17
100
AcDbMlineStyle
  2
Standard
 70
     0
  3

 62
   256
 51
90.0
 52
90.0
 71
     2
 49
0.5
 62
   256
  6
BYLAYER
 49
-0.5
 62
   256
  6
BYLAYER
  0
XRECORD
  5
156
102
{ACAD_REACTORS
330
14D
102
}
330
14D
100
AcDbXrecord
 90
        0
  0
XRECORD
  5
16C
102
{ACAD_REACTORS
330
14D
102
}
330
14D
100
AcDbXrecord
1000
DSTYLE
1002
{
1070
   171
 70
     2
1070
   143
 40
25.4
1070
   274
 70
     2
1070
    41
 40
1.25
1070
   141
 40
0.09
1070
   271
 70
     4
1070
    43
 40
0.38
1070
    44
 40
0.18
1070
   278
 70
    46
1070
    42
 40
0.0625
1070
   147
 40
0.09
1070
    77
 70
     3
1070
   272
 70
     4
1070
    73
 70
     1
1070
   172
 70
     0
1070
    74
 70
     1
1070
   283
 70
     1
1070
   340
340
11
1070
   140
 40
0.18
1070
   284
 70
     0
1070
    78
 70
     0
1002
}
  0
XRECORD
  5
157
102
{ACAD_REACTORS
330
14D
102
}
330
14D
100
AcDbXrecord
  1
{481FC4BE-B84A-484A-8BF8-E27D04F5837F}
  0
XRECORD
  5
150
102
{ACAD_REACTORS
330
14D
102
}
330
14D
100
AcDbXrecord
  1

  0
XRECORD
  5
155
102
{ACAD_REACTORS
330
14D
102
}
330
14D
100
AcDbXrecord
 90
        4
  0
XRECORD
  5
152
102
{ACAD_REACTORS
330
14D
102
}
330
14D
100
AcDbXrecord
340
1A
  0
XRECORD
  5
154
102
{ACAD_REACTORS
330
14D
102
}
330
14D
100
AcDbXrecord
 90
    10781
  0
XRECORD
  5
153
102
{ACAD_REACTORS
330
14D
102
}
330
14D
100
AcDbXrecord
340
19
  0
XRECORD
  5
159
102
{ACAD_REACTORS
330
14D
102
}
330
14D
100
AcDbXrecord
 40
0.0
  0
XRECORD
  5
15C
102
{ACAD_REACTORS
330
14D
102
}
330
14D
100
AcDbXrecord
340
0
  0
XRECORD
  5
162
102
{ACAD_REACTORS
330
14D
102
}
330
14D
100
AcDbXrecord
 10
0.0
 20
0.0
 30
0.0
  0
XRECORD
  5
15E
102
{ACAD_REACTORS
330
14D
102
}
330
14D
100
AcDbXrecord
 10
0.0
 20
0.0
 30
0.0
  0
XRECORD
  5
161
102
{ACAD_REACTORS
330
14D
102
}
330
14D
100
AcDbXrecord
 10
0.0
 20
0.0
 30
0.0
  0
XRECORD
  5
15F
102
{ACAD_REACTORS
330
14D
102
}
330
14D
100
AcDbXrecord
 10
0.0
 20
0.0
 30
0.0
  0
XRECORD
  5
160
102
{ACAD_REACTORS
330
14D
102
}
330
14D
100
AcDbXrecord
 10
0.0
 20
0.0
 30
0.0
  0
XRECORD
  5
15D
102
{ACAD_REACTORS
330
14D
102
}
330
14D
100
AcDbXrecord
 10
0.0
 20
0.0
 30
0.0
  0
XRECORD
  5
15A
102
{ACAD_REACTORS
330
14D
102
}
330
14D
100
AcDbXrecord
340
0
  0
XRECORD
  5
15B
102
{ACAD_REACTORS
330
14D
102
}
330
14D
100
AcDbXrecord
 70
     0
  0
XRECORD
  5
151
102
{ACAD_REACTORS
330
14D
102
}
330
14D
100
AcDbXrecord
  1

  0
XRECORD
  5
14E
102
{ACAD_REACTORS
330
14D
102
}
330
14D
100
AcDbXrecord
 90
        1
  0
XRECORD
  5
14F
102
{ACAD_REACTORS
330
14D
102
}
330
14D
100
AcDbXrecord
 90
       70
  0
XRECORD
  5
165
102
{ACAD_REACTORS
330
14D
102
}
330
14D
100
AcDbXrecord
340
0
  0
XRECORD
  5
16B
102
{ACAD_REACTORS
330
14D
102
}
330
14D
100
AcDbXrecord
 10
0.0
 20
0.0
 30
0.0
  0
XRECORD
  5
167
102
{ACAD_REACTORS
330
14D
102
}
330
14D
100
AcDbXrecord
 10
0.0
 20
0.0
 30
0.0
  0
XRECORD
  5
16A
102
{ACAD_REACTORS
330
14D
102
}
330
14D
100
AcDbXrecord
 10
0.0
 20
0.0
 30
0.0
  0
XRECORD
  5
168
102
{ACAD_REACTORS
330
14D
102
}
330
14D
100
AcDbXrecord
 10
0.0
 20
0.0
 30
0.0
  0
XRECORD
  5
169
102
{ACAD_REACTORS
330
14D
102
}
330
14D
100
AcDbXrecord
 10
0.0
 20
0.0
 30
0.0
  0
XRECORD
  5
166
102
{ACAD_REACTORS
330
14D
102
}
330
14D
100
AcDbXrecord
 10
0.0
 20
0.0
 30
0.0
  0
XRECORD
  5
163
102
{ACAD_REACTORS
330
14D
102
}
330
14D
100
AcDbXrecord
340
0
  0
XRECORD
  5
164
102
{ACAD_REACTORS
330
14D
102
}
330
14D
100
AcDbXrecord
 70
     0
  0
XRECORD
  5
158
102
{ACAD_REACTORS
330
14D
102
}
330
14D
100
AcDbXrecord
  1
{FAEB1C32-E019-11D5-929B-00C0DF256EC4}
  0
ENDSEC
  0
EOF
